Chordie logo


Take Me Back   Ataris



the Ataris - Take Me Back (Anywhere But Here)
i couldn't believe this song wasn't tabbed yet, it's a pretty popular song.
i think they even made a video for this one.
(scroll down for rhythm)

KEY to tab:
~ = let ring
\ = slide down
% = pause
* = play about 5x

/ = slide up
x = scratch/left hand mute

**LEAD GUITAR**
intro
e-77--7-66--6-77--7-99-77-6--77--7-66--6-77--7-9~\-|
B---77----77----77-------------77----77----77------|
G--------------------------------------------------|
D--------------------------------------------------|
A--------------------------------------------------|
E--------------------------------------------------|
"I am blue, the sky..."/"I'm sorry that..."
e----------------------|
B----------------------|
G-4---------111111-99\-|
D-4--%%%%%--111111-99\-|
A-2--%%%%%---9-9-9-77\-|
E----------------------|
"I caught you..."/"I'm sorry that..."
e--------------------------------|
B--------------------------------|
G-8**-9*-6*--8*-4*-9*-111111-99\-|
D-x---x--x---x--x--x--111111-99\-|
A-6---7--4---6--2--7---9-9-9-77\-|
E--------------------------------|
"Baby, I'd give you..."/"Oh baby, what can I do?..."
e------------------------------------------------------|
B------------------------------------------------------|
G------------------------------------------------------|
D-6666--44-2222--44-6*-4*-2*-4*-6666--44-2222-44-6*-6~-|
A-6666--44-2222--44-6--4--2--4--6666--44-2222-44-6--6--|
E-4444--22-0000--22-4--2--0--2--4444--22-0000-22-4--4--|
REPEAT ALL

"Please take me back..."
e---------------------|(2x)
B---------------------|
G---------------------|
D-9*-8*-6*-4*-2**-4**-|
A-9--8--6--4--2---4---|
E-7--6--4--2--0---2---|

e---------------------|(2x)
B---------------------|
G---------------------|
D-9#-8#-6#-4#-2**-4**-|
A-9--8--6--4--2---4---|
E-7--6--4--2--0---2---|

e---------|
B---------|
G---------|
D-9~--99\-|
A-9---99\-|
E-7---77\-|










**RHYTHM GUITAR***
e---------------------------------|
B---------------------------------|
G----8*-9*--------8*-9*-111111-9\-|
D-9*-8--9--4*--9*-8--9--111111-9\-|
A-9--6--7--4---9--6--7---9-9-9-7\-|
E-7--------2---7------------------|
"I am blue, the sky..."/"I'm sorry that..."
e-----------------------------------------------|
B-----------------------------------------------|
G-4#-4/8#-8/9#-------4#-4/8#-8/9#-9/-111111-99\-|
D-4--4/8--8/9--\4x44-4--4/8--8/9--9/-111111-99\-|
A-2--2/6--6/7--\4x44-2--2/6--6/7--7/--9-9-9-77\-|
E---------------2x22----------------------------|
"I caught you..."/"I'm sorry that..."
e---------------------------------|
B---------------------------------|
G-4*-8*-9*----4*-8*-9*-111111-99\-|
D-4--8--9--4*-4--8--9--111111-99\-|
A-2--6--7--4--2--6--7---9-9-9-77\-|
E----------2----------------------|
"Baby, I'd give you..."/"Oh baby, what can I do?..."
e------------------------------------------------------|
B------------------------------------------------------|
G------------------------------------------------------|
D-6666--44-2222--44-6*-4*-2*-4*-6666--44-2222-44-6*-6~-|
A-6666--44-2222--44-6--4--2--4--6666--44-2222-44-6--6--|
E-4444--22-0000--22-4--2--0--2--4444--22-0000-22-4--4--|
REPEAT ALL

"Please take me back..."
e---------------------|(2x)
B---------------------|
G---------------------|
D-9*-8*-6*-4*-2**-4**-|
A-9--8--6--4--2---4---|
E-7--6--4--2--0---2---|

e---------------------|(2x)
B---------------------|
G---------------------|
D-9#-8#-6#-4#-2**-4**-|
A-9--8--6--4--2---4---|
E-7--6--4--2--0---2---|

e---------|
B---------|
G---------|
D-9~--99\-|
A-9---99\-|
E-7---77\-|

tabbed by noneoftheabove


Important: The song above is NOT stored on the Chordie server. The original song is hosted at www.guitaretab.com. Chordie works as a search engine and provides on-the-fly formatting. Chordie does not index songs against artists/composers will. To remove this song please click here.

This song is displayed as text-only. Transposing and tuning is only available for chordpro-songs.

Login - add to songbook

Rating click stars to rate

Layout
Accuracy

SHARE PAGE  




You need to log in to post comments