Chordie logo


The Boys Of Summer   Ataris



Standard Tuning.

h= Hammer-on
p= Pull off
/= Slide

Intro
e--------------------| 
B--------------------|  
G--------------------| 
D---11/13------11----|
A---11/13-11h13--13--| 
E---9-/11------------| 

Background Riff:
e------------|  
B------------|    
G---11-10----|   
D--------11--|   
A------------|     
E------------|  
Verse - Played repeatedly during the verse.                                   
e--------------|   
B--------------| 
G--------------|   
D---13-9-11-9--|  
A---13-9-11-9--|                                                       
E---11-7-9--7--| 

Chorus-All the cords in the chorus, just repeat.
e------------| 
B---9--9--7--| 
G---11-10-8--| 
D---11-11-9--|  
A---9--11-9--| 
E---9--9--7--| 

Verse-the second Verse and the third have a bit of palm muting in them.
e--------------| 
B--------------| 
G--------------|  
D---13-9-11-9--| 
A---13-9-11-9--| 
E---11-7-9--7--| 

2nd Verse Background Solo
e--------------------------------------------------------------------| 
B--------------------------------------------------------------------| 
G--------------------------------------------------------------------| 
D--------------------------------------------------------------------| 
A--------------------------------------------------------------------| 
E---11-----11-13-12-12/14-12-12----4-6-7-4---4/2-1----1-2-4-4/6-2-2--| 

Chorus.
e------------|
B---9--9--7--| 
G---11-10-8--| 
D---11-11-9--|  
A---9--11-9--| 
E---9--9--7--| 

Bridge:
e--------------------------------|   
B--------------------------------| 
G--------------------------------| 
D---13-13-11-11-9-9--13-13-11-9--| 
A--------------------------------| 
E--------------------------------|
 
e-------------------------------------------------------------|     
B-------------------------------------------------------------|    
G---18--18-16-15-11-18-16-15-11---11h13p11-10/11/10-8/10-6/8--|    
D-------------------------------------------------------------|    
A-------------------------------------------------------------| 
E-------------------------------------------------------------|   
 
e-------------------------|  
B-------------------------|     
G-------------------------| 
D---19-17-16-14/16/14-12--|   
A-------------------------|      
E-------------------------|   
                                       
e--------------------------|                        
B--------------------------|    
G---8-10-8-11-8-13-15-8-8--| 
D--------------------------|       
A--------------------------|   
E--------------------------|   
                   

Verse.
e--------------|
B--------------| 
G--------------|  
D---13-9-11-9--| 
A---13-9-11-9--|      
E---11-7-9--7--|  

Chorus.
e------------|
B---9--9--7--| 
G---11-10-8--| 
D---11-11-9--|  
A---9--11-9--| 
E---9--9--7--| 

Chorus Background - Played during the last chorus and alone at the very end of the 

song.
e-----------------------------------------------|
B---11-9-11------11-9-11------11-9-11-----------|
G----------11--11-------11--11-------11—11-6/8--|
D------------11-----------11-----------11-------|
A-----------------------------------------------|


Important: The song above is NOT stored on the Chordie server. The original song is hosted at www.guitaretab.com. Chordie works as a search engine and provides on-the-fly formatting. Chordie does not index songs against artists/composers will. To remove this song please click here.

This song is displayed as text-only. Transposing and tuning is only available for chordpro-songs.

Login - add to songbook

Rating click stars to rate

Layout
Accuracy

SHARE PAGE  




You need to log in to post comments