Guitar Tabs, Chords and Lyrics


Ankhon Se   Unknown



Tabbed by Faraz Syed on 10/26/2006

Artist:		Atif Aslam
Song:		Ankhon Se
Album:		Jal Pari
Tuning:		Standard (EADGBE)
Capo:		N/A
Key:		G major

This is a great Pakistani rock/bluesy solo with a really nice, smooth feel.

The solo tab is split up into 8 licks, to be learnt while listening to the album-version 
The timing within the song is included for each lick.


  Tab Notation
 ------------------
| / - slide up     |
| \ - slide down   |
| h - hammer on    |
| p - pull off     |
| b - bend up      |
| r - release down |
| ~ - vibrato      |
| * - stoccato     |
 ------------------


Lick 1 (02:50)

e|-----------------------------------------------------------|
B|-----8---8-10h12*-8-10b12----------------------------------|
G|-7/9---9---------------------------------------------------|
D|-----------------------------------------------------------|
A|-----------------------------------------------------------|
E|-----------------------------------------------------------|

Lick 2 (02:54)

e|-----------------------------------------------------------|
B|-7h8-7h8---------------------------------------------------|
G|---------7/9*-7--------------------------------------------|
D|---------------7b9r7\6-6-----------------------------------|
A|-----------------------------------------------------------|
E|-----------------------------------------------------------|

Lick 3 (02:59)

e|-----------------------------------------------------------|
B|-----------------------------------------------------------|
G|-----------------------------------------------------------|
D|-5/7-7-7-7-7/9-9/12-12-12-12/------------------------------|
A|-----------------------------------------------------------|
E|-----------------------------------------------------------|

Lick 4 (03:02)

e|---------10------------------------------------------------|
B|-8-10b12----10b12r10p8---8-10b12*-8-10b12------------------|
G|-----------------------9-----------------------------------|
D|-----------------------------------------------------------|
A|-----------------------------------------------------------|
E|-----------------------------------------------------------|

Lick 5 (03:07)

e|-------10--------------------------------------------------|
B|-10b12----12r10-8---8-7b8r7--------------------------------|
G|------------------9---------7~-----------------------------|
D|-----------------------------------------------------------|
A|-----------------------------------------------------------|
E|-----------------------------------------------------------|

Lick 6 (03:11)

e|----------12-10----10b12-12-10-7h10p7-------12----12---------12----------|
B|-10b12-12-------12--------------------10b12----12----10b12-12---10b12----|
G|-------------------------------------------------------------------------|
D|-------------------------------------------------------------------------|
A|-------------------------------------------------------------------------|
E|-------------------------------------------------------------------------|

Lick 7 (03:15)

e|------15-------14-------12-------10------8-----7---7-------|
B|-----------------------------------------------------------|
G|-14\16----16\14----14\12----12\11----11\9---9\7---7---7\---|
D|-----------------------------------------------------------|
A|-----------------------------------------------------------|
E|-----------------------------------------------------------|

Lick 8 (03:20)

e|-----------------------------------------------------------|
B|-10b12-12r10-8-10-8-10\3-3-3b5-----------------------------|
G|-----------------------------------------------------------|
D|-----------------------------------------------------------|
A|-----------------------------------------------------------|
E|-----------------------------------------------------------|

You can barely hear the last bend (3b5) but its there. Do it slowly; the bend should 


Important: The song above is NOT stored on the Chordie server. The original song is hosted at www.guitaretab.com. Chordie works as a search engine and provides on-the-fly formatting. Chordie does not index songs against artists'/composers' will. To remove this song please click here.

This song is displayed as text-only. Transposing and tuning is only available for chordpro-songs.

Login - add to songbook

Rating click stars to rate

Layout
Accuracy

SHARE PAGE  




You need to log in to post comments