eToCache5 = ""; ?> by - guitar chords, guitar tabs and lyrics - chordie










































variations - click chord images
Transpose chords:
Tuning:
Cool service:
View: Size:
A  A  A
Rating:
Layout:
  • Currently 0/5 Stars.
  • 1
  • 2
  • 3
  • 4
  • 5
 
Accuracy:
  • Currently 3.1/5 Stars.
  • 1
  • 2
  • 3
  • 4
  • 5
 
click stars to rate
Chordie recommends:
Check out JamPlay.com for online video guitar lessons
Songbook:
Login to add this song to your songbook
Support the artist
Preview/buy this song
MSN Music
Why this non-profit ad?

 
login to add comments/video/corrections

frizztext (report comment to admin):
you can work with the free tab-writer (and player) at

http://www.simoneperandini.com/tabplayer/

I am trying to add my version...
frizztext (report comment to admin):
 -----C-------C-------Em--------------Bb------C7------Am7-----Am

e|---3-------------3-3---------1-0---------0-----------------0---3------------|
B|---1-------------1-0---------0-0-3-3-----3-1-------1---1---1---1------------|
G|---0-0-0-0-0-0-0-0-0-0-0-0-0-0-0-0-0-0-0-0-0-0-0-0-0-0-0-0-0-0-0-0----------|
D|---------------------------------0-3-------2-------2---3--------------------|
A|---3-------------3-2---------2-2-2-1-----1-1-------0---0---0---0------------|
E|----------------------------------------------------------------------------|

-----C-------C-------Em------Em------G7sus4--G7------G9------G7
e|---3-------------3-3-----1-0-----3-8-------7-------5-------7---3------------|
B|---1-------------1-0-----0-0-----0-6-------6-------6-------6---1------------|
G|---0-0-0-0-0-0-0-0-0-0-0-0-0-0-0-0-0-0-0-0-0-0-0-0-0-0-0-0-0-0-0------------|
D|-----------------------------------0-------0-------0-------0-----0----------|
A|---3-------------3---------------------------------------------8------------|
E|-------------------0-----0-0-----0------------------------------------------|

frizztext (report comment to admin):
will write down more, if someone is interested...