Chordie logo


Down Here   Atomship



Hey, I watched them perform this song, and watched it over and over until I got the 
PERFECT. So, enjoy.... the best band ever! ;)

The song is made up of 4 chords....

3 0 2 3
0 0 3 3
0 0 2 2
0 2 0 0
2 2 0 0
3 0 0 0

Chorus 1:

--------------------------------0------------|
-------3-3------------3-3-------------3------|
-----0-----0--------0-----0-------0-----0----|
---2--------------2---------2-------2-----2--|
-3--------------3-------------3--------------|
---------------------------------------------|

Chorus 2:

-----------------3--------------|
-------0-0-------------0--------|
-----------0-------0-----0------|
-----0-------0-------0-----0----|
---2-----------2-------------2--|


Important: The song above is NOT stored on the Chordie server. The original song is hosted at www.guitaretab.com. Chordie works as a search engine and provides on-the-fly formatting. Chordie does not index songs against artists/composers will. To remove this song please click here.

This song is displayed as text-only. Transposing and tuning is only available for chordpro-songs.

Login - add to songbook

Rating click stars to rate

Layout
Accuracy

SHARE PAGE  




You need to log in to post comments