Guitar Tabs, Chords and Lyrics


El Pajaro Canta Hasta Morir   Attaque 77



El pájaro canta hasta morir
Intérprete: Attaque 77
Autor: Attaque 77

Intro (x2)
                                                                   E5(-)
E5 p.m.                                                             =
                            A5 E5(-)           E5 p.m.           E|---|
Desde un rincón del olvido sólo en su jaula                      B|---|
                         A5         E5(-)      C#5               G|---|
Desde el infierno mismo donde no debía estar                     D|-9-|
  C#5         D5           C#5           D5            C#5       A|-7-|
Qué sera lo que te impide oír tan claro como el agua             e|---|
C#5        D5            A5                            E5 p.m.
El pájaro canta hasta morir ... su melodía sin fin

                             A5        E5(-)    E5 p.m.
Como esas cosas lujosas que hay en tu casa
                         A5              E5(-)    C#5
Que nunca pueden llenar tu vacío existencial
  C#5       D5           C#5       D5	 C#5
Que ironía del destino es haber nacido con alas
C#5         D5           A5
Y mirar el cielo desde ahí, una tortura cruel

 G5                   F5                        A5
Hay una espina clavada profundo en mi ser,
                           C5
En mi costado izquierdo; ahí a donde late mi fe
 G5                  F5                   A5
Sólo duele cuando río, como indicándome
                   C5
Que nunca seremos libres, mientras que no lo sea él

Intro (x 2)

E5 p.m.
                      A5       E5(-)              E5 p.m.
El nos hace creernos tan importantes.
                        A5                 E5(-)  C#5
Como si el ser humano fuese lo único esencial
(Riff 1)
Un capricho egoísta y ya justificamos la causa
La desgrasia de un pobre animal, muy pobre en felicidad

G5                   F5                        A5
Hay una espina clavada profundo en mi ser,
                           C5
En mi costado izquierdo; ahí a donde late mi fe
 G5                  F5                   A5
Sólo duele cuando río, como indicándome
                   C5
Que nunca seremos libres, mientras que no lo sea él

Punteo

G5                   F5                        A5
Hay una espina clavada profundo en mi ser,
                           C5
En mi costado izquierdo; ahí a donde late mi fe
 G5                  F5                   A5
Sólo duele cuando río, como indicándome
                   C5
Que nunca seremos libres, mientras que no lo sea él


Intro

E|------------------------|
B|------------------------|
G|----------------------0-|
D|-------4------4-4-2-4---|
A|---0-2----0-2-----------|
e|-0-------0--------------|

Riff 1

 C#5C#5D5         C#5C#5D         5C#5C#5D5        A5
E|---------------------------------------------------|
B|-2-2-3—3-3-3-3-3-2-2-3-3-3-3-3-3-2-2-3-3-3-3-3-3---|
G|-------------------------------------------------2-|
D|---------------------------------------------------|
A|---------------------------------------------------|
e|---------------------------------------------------|

Punteo

E|-------------------------------------------------------------------|
B|---8-7-----8-7-----8-7-------10-8-7-------8-7-----8-7-----10-8-7-8-|
G|-------9-------9-----------6--------9---------9---------6----------|
D|-9-------9-------9-------9------------9---------9-----9------------|
A|-------------------------------------------------------------------|
e|-------------------------------------------------------------------|

E|--------------------------------------------|
B|-12-10----------12-10---------12-10---------|
G|-------12-11-9--------12-11-9-------12-11-9-|
D|--------------------------------------------|
A|--------------------------------------------|
e|--------------------------------------------|

E|-------10-10----10-10----10-10----10-10----|
B|-12-12-------12-------12-------12-------14-|
G|-------------------------------------------|
D|-------------------------------------------|
A|-------------------------------------------|
e|-------------------------------------------|

Acordes

   E5 A5 C#5 D5 G5 F5 C5
E|-----------------------|
B|-----------------------|
G|--9-----6---7--------5-|
D|--9--7--6---7--5--3--5-|
A|--7--7--4---5--5--3--3-|
e|-----5---------3--1----|



Important: The song above is NOT stored on the Chordie server. The original song is hosted at www.guitaretab.com. Chordie works as a search engine and provides on-the-fly formatting. Chordie does not index songs against artists/composers will. To remove this song please click here.

This song is displayed as text-only. Transposing and tuning is only available for chordpro-songs.

Login - add to songbook

Rating click stars to rate

Layout
Accuracy

SHARE PAGE  




You need to log in to post comments