Guitar Tabs, Chords and Lyrics


Always   Attiley










Title: Always
Artist: aTTiley
Album: TBA

Instrument: 6 String Guitar

Tabbed by: Joe Hill   ()

Tuning: Standard (E A D G B E)

First song I have ever tabbed.  It is 100% correct because I made the song myself.


INTRO:
E|--------------------7777-------------------------------------------||
B|-7777/8888-10101010-xxxx--x2---------------------------------------||
G|-7777-7777--7-7-7-7-7777-------------------------------------------||
D|-------------------------------------------------------------------||
A|-------------------------------------------------------------------||
E|-------------------------------------------------------------------||
  Do this part very soft and slow. On the repeat get louder.
E|----------7-------------7-------------7----------------------------||
B|-7-/-8-10-x----7-/-8-10-x----7-/-8-10-x----------------------------||
G|-7---7--7-7----7---7--7-7----7---7--7-7----------------------------||
D|---------------0---0--0-0----0---0--0-0----------------------------||
A|-----------------------------0---0--0-0----------------------------||
E|-------------------------------------------------------------------||
  Play each chord 4 times as in the beginning, and keep on getting louder as you add the strings.
VERSE:
E|----------7--------------------------------------------------------||
B|-7-/-8-10-x--------------------------------------------------------||
G|-7---7--7-7--------------------------------------------------------||
D|-0---0--0-0--------------------------------------------------------||
A|-0---0--0-0--------------------------------------------------------||
E|-------------------------------------------------------------------||
  Now just play each chord 8 times loud and hard.
CHORUS:
E|-------------------------------------------------------------------||
B|-7777h8-888p7-777h8-9999-------------------------------------------||
G|-------0-----------------------------------------------------------||
D|-------------0-----------------------------------------------------||
A|-------------------------------------------------------------------||
E|-------------------------------------------------------------------||
  Guitar 1 plays this riff while Guitar 2 fills with verse riff.
BRIDGE:
E|-----------0---3---------------------------------------------------||
B|-7-/-8-\-7-5-7-7---------------------------------------------------||
G|-7---7---7---0-----------------------------------------------------||
D|-------------------------------------------------------------------||
A|-------------------------------------------------------------------||
E|-------------------------------------------------------------------||


Important: The song above is NOT stored on the Chordie server. The original song is hosted at www.guitaretab.com. Chordie works as a search engine and provides on-the-fly formatting. Chordie does not index songs against artists'/composers' will. To remove this song please click here.

This song is displayed as text-only. Transposing and tuning is only available for chordpro-songs.

Login - add to songbook

Rating click stars to rate

Layout
Accuracy

SHARE PAGE  




You need to log in to post comments