Chordie logo

Like A Stone   Audioslave









INTRO  
E|-------------------------------------
B|*------------------------------------
G|-------------------------------------
D|-8------10---------7------13-12------
A|*---10------8------------------------
E|---------------10-----11-------------
CHORUS
E|----------------
B|*---------------
G|-8--------------
D|-8---8---3---5--
A|*6---8---3---5--
E|-----6---1---3--
SOLO-Using the WHAMMY Pedal
E|---------------------------------------------------------
B|-------------13----------------------------------18--20--
G|-12--14--15------15--14--12--12--14--10--15--17----------
D|---------------------------------------------------------
A|---------------------------------------------------------
E|---------------------------------------------------------

(>)hit down on the WHAMMY pedal
   >        >
E|-22-22-22-20-20-20-19-19-19-17-17-17-
B|*------------------------------------
G|-------------------------------------
D|-------------------------------------
A|*------------------------------------
E|-------------------------------------

E|------------------------------------
B|----------------------------->------
G|---2-3-5-7-8-10-12-14-15-14-15-14b--
D|-5----------------------------------
A|---0-1-3-5-6-8--10-12-13-12-13-12b--
E|-3----------------------------------

Acustic
E|-------------------------------------------------
B|*8--8--8--8--------------------------------------
G|-8--8--8--8--7--7--7--7--2--2--2--2--------------
D|-8--8--8--8--8--8--8--8--3--3--3--3--5--5--5--5--
A|*6--6--6--6--8--8--8--8--3--3--3--3--5--5--5--5--
E|-------------6--6--6--6--1--1--1--1--3--3--3--3--
E|----------------
B|*---------------
G|-8-------------- 
D|-8---8---3---5--
A|*6---8---3---5--
E|-----6---1---3--
E|----------------------
B|----------------------
G|-8--------------------
D|-8--8--5--3--5--3--5--
A|-6--8--5--3--5--3--5--
E|----6--3--1--3--1--3--


Important: The song above is NOT stored on the Chordie server. The original song is hosted at www.guitaretab.com. Chordie works as a search engine and provides on-the-fly formatting. Chordie does not index songs against artists/composers will. To remove this song please click here.

This song is displayed as text-only. Transposing and tuning is only available for chordpro-songs.

Login - add to songbook

Rating click stars to rate

Layout
Accuracy

SHARE PAGE  



You need to log in to post comments