Chordie logo


Baby One More Time   August Burns Red



Artist: August Burns Red
Song: Baby One More Time...
Album: Punk Goes Pop 2

.. = Palm Mute
t = Tremolo Picking

Intro
D||---------------------------------------------------|
A||---------------------------------------------------|
F||---------------------------------------------------|
C||---------------------------------------------------| 2X
G||-10---12-12---0000-00-00-0-00000-00-00-0-000-000---|
C||-10---12-12---0000-00-00-0-00000-00-00-0-000-000---|
                 .... .. .. . ..... .. .. . ... ...

End On:

D||-----------|
A||-----------|
F||-----------|
C||-10---12---|
G||-10---12---|
C||-10---12---|


Verse (Some of the 0's & 3's may be missing/wrong, but you get the idea, figure it out)
D||----------------------------------------------------|
A||----------------------------------------------------|
F||----------------------------------------------------|
C||----------------------------------------------5-7---|
G||-5---5-5----5---5---5----5-7-8-5---3---0---0--------|
C||---0-----00---0---0---00---------0---0---0----------|
      .     ..   .   .   ..         .   .   . 

D||--------------------------------------------------------|
A||--------------------------------------------------------|
F||------------------------------------------------7--10---|
C||-3--3-3----3---3-3---3---5---5---5---8---7---7----------| 2X
G||--------------------------------------------------------|
C||--3-----33---3-----3--33---0---0---0---0---0------------|
     .     ..   .     .  ..   .   .   .   .   .

Pre-Chorus:
D||-------------------------------------------|
A||-------------------------------------------|
F||-------------------------------------------|
C||----------------------------------12-------|
G||-8t-10t-8t-7t-5t-7t-8t-10t-8t-12t----13~---|
C||-------------------------------------------|

Chorus:
D||-------------------------------------------------------------------------------|
A||-------------------------------------------------------------------------------|
F||-7-----------5-5-5-5-9-9-9-9-10-----------12---------14-14-14-14-15-15-15-15---|
C||-x-(24times)-x-x-x-x-x-x-x-x-x--(16times)-x-(8times)-x--x--x--x--x--x--x--x----| 2X
G||-5-----------3-3-3-3-7-7-7-7-8------------10---------12-12-12-12-13-13-13-13---|
C||-------------------------------------------------------------------------------|

Repeat Verse

Repeat Pre-Verse

Repeat Chorus (Breakdown played with it 2nd time around)

Repeat Intro as Lead-In to Interlude/Bridge

End On:
D||------|
A||------|
F||------|
C||--0---|
G||--0---|
C||--0---|

Interlude/Bridge:
D||---------------------------------------------------------------8--6--------------|
A||-------8-10-10~--------8-10-10~--------8-10-10--11-10-8~-----8-------10--8-10~---|
F||-10-10-----------10-10-----------10-10--------------------10---------------------|
C||---------------------------------------------------------------------------------| 2X
G||---------------------------------------------------------------------------------|
C||---------------------------------------------------------------------------------|

Chorus Again (Breakdown played with it 2nd time around)

End On:
D||------------------|
A||------------------|
F||------------------|
C||-10---12-12---0---|
G||-10---12-12---0---|
C||-10---12-12---0---|

This was done entirely by ear so give me a break on some parts.
I'm not too great with breakdown rhythms, but you can easily figure them out.


Important: The song above is NOT stored on the Chordie server. The original song is hosted at www.guitaretab.com. Chordie works as a search engine and provides on-the-fly formatting. Chordie does not index songs against artists/composers will. To remove this song please click here.

This song is displayed as text-only. Transposing and tuning is only available for chordpro-songs.

Login - add to songbook

Rating click stars to rate

Layout
Accuracy

SHARE PAGE  




You need to log in to post comments