"yes"; ?> I Still Aint Over You by Augustana - guitar chords, guitar tabs and lyrics - chordie

I Still Aint Over You

Augustana

e|-----3-----3-----3-----3--------------------------------|

B|-----1-----1-----1-----1--------------------------------|
G|-----0-----0-----2-----0-------(REPEAT THROUGH VERSES)--|
D|-----2-----2-----3-----2--------------------------------|
A|-----3-----0-----0-----3--------------------------------|
E|-----X-----X-----X-----X--------------------------------|

 E9EmAGFC
e|-----3-----3------3-----3-----3-----3--------------------------------------------|
B|-----1-----1------1-----1-----1-----1--------------------------------------------|
G|-----0-----0------2-----0-----2-----0--------------------------------------------|
D|-----0-----0------2-----0-----3-----2--------------------------------------------|
A|-----3-----2------0-----2-----0-----3--------------------------------------------|
E|-----X-----X------X-----3-----X-----X--------------------------------------------|


Verse 1: PART 3

... I still ain't over you

Still Over You
 E9EmAGC
e|-----3-----3-----3-----3-----3--------------------------------------------------|
B|-----1-----1-----1-----1-----1--------------------------------------------------|
G|-----0-----0-----2-----0-----0--------------------------------------------------|
D|-----0-----0-----2-----0-----2--------------------------------------------------|
A|-----3-----2-----0-----2-----3--------------------------------------------------|
E|-----X-----X-----X-----3-----X--------------------------------------------------|


Chorus: PART 1

When the walls come crashing in....

Walls Come Crashing In

 AFGC
e|-----3-----3-----3-----3-------------------------|
B|-----1-----1-----1-----1-------------------------|
G|-----2-----2-----0-----0---------(REPEAT TWICE)--|
D|-----2-----3-----0-----2-------------------------|
A|-----0-----0-----2-----3-------------------------|
E|-----X-----X-----3-----X-------------------------|


Chorus: PART 2

... I still ain't over you

I Still Over You

 AGC
e|-----3-----3-----3------------------------------------------------------------|
B|-----1-----1-----1------------------------------------------------------------|
G|-----2-----0-----0------------------------------------------------------------|
D|-----2-----0-----2------------------------------------------------------------|
A|-----0-----2-----3------------------------------------------------------------|
E|-----X-----3-----X------------------------------------------------------------|


Lyrics:

Verse 1:

Out of luck and out of tune
Half a day and left confused
Love may wash away the bruise
But I still ain't over you

Verse 2:

Run to me, grow slow the time
Miles away from home am I
The same old shit, the same old life
I still ain't over you

Chorus:

'Cuz When the walls come crashing in
When the flames come closer down
Just remember time and again
I still ain't over you

Verse 3:

Goddamn the day that I forgot
Came so close and almost lost
Been one year and 14 months
I still ain't over you

Chorus x 2

Verse chords x 1

THE END!

| / slide up
| \ slide down
| h hammer-on
| p pull-off
| ~ vibrato
| + harmonic
| x Mute note
===============================================================================


A C E9 Em F G
variations - click chord images
Transpose chords:
Tuning:
Cool service:
View: Size:
A  A  A
Rating:
Layout:
  • Currently 3.3/5 Stars.
  • 1
  • 2
  • 3
  • 4
  • 5
 
Accuracy:
  • Currently 3.1/5 Stars.
  • 1
  • 2
  • 3
  • 4
  • 5
 
click stars to rate
Chordie recommends:
Learn to play guitar with video-based, online guitar lessons at JamPlay.com
Songbook:
Login to add this song to your songbook
Support the artist
Preview/buy this song
MSN Music
Why this non-profit ad?

 
login to add comments/video/corrections