Guitar Tabs, Chords and Lyrics


Austrius  Austria 3

E----------------------------|---------------------------|


B----0---0----0---0---0----0-|---0---0----0---0---0----0-|


G----------------------------|---------------------------|


D------9===10===7===9===-----|-----9===10===7===9===-----|


A--7===-----------------10===|-7===-----------------10===|


E----------------------------|---------------------------|

   [1]|   [3]     [4]|   [1]    [3]|    [4]      |        |       |
E----------------------------|---------------------------|
B----0---0----0---0---0----0-|---0---0----0---0---0----0-|
G----------------------------|---------------------------|
D------9===10===7===9===-----|-7===---------7===---------|
A--7===-----------------10===|-----9===10===----9===10===|
E----------------------------|---------------------------|

   |        |       |          [1]|   [3]     [4]|   [1]    [3]|[4]
E----------------------------|---------------------------|
B----0---0----0---0---0----0-|---0---0----0---0---0----0-|
G----------------------------|---------------------------|
D------9===10===7===9===-----|-----9===10===7===9===-----|
A--7===-----------------10===|-7===-----------------10===|
E----------------------------|---------------------------|

| | | | | |
E----------------------------|---------------------------|
B----0---0----0---0---0----0-|---0---0----0---0----0---0-|
G----------------------------|---------------------------|
D------9===10===7===9===-----|-7===----------------------|
A--7===-----------------10===|-----9===10===7===---------|
E----------------------------|------------------10===8===|

   |        |       |         |[1]    [3]    |[4]    [1]   |[4] [2]
E---------------------------|--------------------------|
B----0---0----0---0---0---0-|---0---0----0---0---0---0-|
G---------------------------|--------------------------|
D------9===10===7===9===----|-----9===10===7===9===----|
A-----------------------9===|----------------------9===|
E--7===---------------------|-7===---------------------|

   [1]|   [3]    |[4]    [1]    [4]|   [3]       |        |        |
E----------------------------|---------------------------|
B----0---0---0---0----0----0-|---0----0---0---0----0---0-|
G----------------------------|---------------------------|
D----------7===9===10===12===|-9===10===7===9===---------|
A------9===------------------|------------------10===9===|
E--7===----------------------|---------------------------|

   [1]|   [3]    [1] |  [1]     [2]|    [4]     |[1]     [2]   |[1]    [3]   |[4] [1]
E---------------------------|--------------------------|
B----0---0----0---0---0---0-|---0---0----0---0---0---0-|
G---------------------------|--------------------------|
D------9===10===7===9===----|-----9===10===7===9===----|
A-----------------------9===|----------------------9===|
E--7===---------------------|-7===---------------------|

| | | | | |
E----------------------------|--------------------------|
B----0---0---0----0----0---0-|----0---0---0---0---0---0-|
G----------------------------|--------------------------|
D------7===9===10===12===9===|-10===7===9===5===7===4---|
A----------------------------|--------------------------|
E--7===----------------------|--------------------------|

   [1]|   [2]    [2]    |[3]     [4]    [1]  |    [2]    [2]    [4] |  [2]    [4]    [1] |           |
E------7-----7-----7-----7-----7-----7-|-----7-----7-----7-----7-----7-----7-|
B----0-----0-----0-----0-----0-----0---|---0-----0-----0-----0-----0-----0---|
G--------4=====5=====------4=====------|-------4=====5=====------4=====------|
D--------------------7=====------5=====|-------------------7=====------5=====|
A--7-----------------------------------|-7-----------------------------------|

E--0===================================|-0===================================|
3 0 4 1 2 3 1 2
p i m
p
| | | | | |
E------7-----7-----7-----7-----7-----7-|-----7-----7-----7-----7-----7-----7-|
B----0-----0-----0-----0-----0-----0---|---0-----0-----0-----0-----0-----0---|
G--------4=====5=====------4=====------|-------------------------------------|
D--------------------7=====------5=====|-7=====4=====5=====7=====4=====5=====|
A--7-----------------------------------|-------------------------------------|

[E]                                  

Important: The song above is NOT stored on the Chordie server. The original song is hosted at www.guitaretab.com. Chordie works as a search engine and provides on-the-fly formatting. Chordie does not index songs against artists/composers will. To remove this song please click here.

Text color:
Chord color:
Chord grids: 
Font size:    
Page size: 

E
variations - click chord images

Login - add to songbook

Transpose chords

Tuning

Rating click stars to rate

Layout
Accuracy

SHARE PAGE  




You need to log in to post comments