Chordie logo


Over Seasons   Authority Zero



intro
e|-0-0-3-3---1-1-1-1h3p1-1-1-1-3-1-|
B|-1-1-1-1-1-1-1-1-1-----1-1-1-1-1-|
G|-2-2-2-2-2-2-2-2-2---------------|repeat a few times
D|-2-2-2-2-2-----------------------|
A|---------------------------------|
E|---------------------------------|

verse: up beat ska strokes
e|-8------5------5------|
B|-8-(x4)-6-(x4--5-(x8)-|
G|-9------7------5------|
D|----------------------|
A|----------------------|
E|----------------------|

prechorus
e|-5-|
B|-5-|repeat in a reggae ska fashion throughout
G|-5-|
D|---|
A|---|
E|---|

bridge
e|-5-5-5-5-5-5-1-1-1-1-1-1-3-3-3-3-3-0-1-------------------------------|
B|-5-5-5-5-5-5-1-1-1-1-1-1-1-1-1-1-1-1-1-------------------------------|
G|-5-5-5-5-5-5-2-2-2-2-2-2-2-2-2-2-2-2-2-------------------------------|
D|-----------------------------------2---------------------------------|
A|---------------------------------------------------------------------|
E|---------------------------------------------------------------------|

solo
e|-----------------------------------------------------|
B|-12h13p12----12h13p12--------------------------------|
G|---------12------------------------------------------|
D|---------------------14-12hb---------12---------12---|
A|-----------------------------12-14-15--12-14-15----14|
E|-----------------------------------------------------|

e|-12-12-12-12-10-10-10-10-8-8-8-8-7-7-7-7-8--7-8--10-8--10-12-----|
B|-13-13-13-13-12-12-12-12-101010108-8-8-8-10-8-10-12-10-12-13-----|
G|-----------------------------------------------------------------|
D|-----------------------------------------------------------------|
A|-----------------------------------------------------------------|
E|-----------------------------------------------------------------|

e|-------------------------------------------|
B|-------------------------------------------|
G|-2-2-2-2-2-5-4-2-2-2-2-2-5-4-0-2-2-2-2-----|
D|---------------------------------------0-2-|x2
A|--------------------------------------3----|
E|-------------------------------------------|

closing chord
e|-5-|
B|-5-|
G|-5-|
D|---|
A|---|
E|---|
song order
intro
verse
prechorus
intro (chorus)
verse
prechorusintro
e|-0-0-3-3---1-1-1-1h3p1-1-1-1-3-1-|
B|-1-1-1-1-1-1-1-1-1-----1-1-1-1-1-|
G|-2-2-2-2-2-2-2-2-2---------------|repeat a few times
D|-2-2-2-2-2-----------------------|
A|---------------------------------|
E|---------------------------------|

verse: up beat ska strokes
e|-8------5------5------|
B|-8-(x4)-6-(x4--5-(x8)-|
G|-9------7------5------|
D|----------------------|
A|----------------------|
E|----------------------|

prechorus
e|-5-|
B|-5-|repeat in a reggae ska fashion throughout
G|-5-|
D|---|
A|---|
E|---|

bridge
e|-5-5-5-5-5-5-1-1-1-1-1-1-3-3-3-3-3-0-1-------------------------------|
B|-5-5-5-5-5-5-1-1-1-1-1-1-1-1-1-1-1-1-1-------------------------------|
G|-5-5-5-5-5-5-2-2-2-2-2-2-2-2-2-2-2-2-2-------------------------------|
D|-----------------------------------2---------------------------------|
A|---------------------------------------------------------------------|
E|---------------------------------------------------------------------|

solo
e|-----------------------------------------------------|
B|-12h13p12----12h13p12--------------------------------|
G|---------12------------------------------------------|
D|---------------------14-12hb---------12---------12---|
A|-----------------------------12-14-15--12-14-15----14|
E|-----------------------------------------------------|

e|-12-12-12-12-10-10-10-10-8-8-8-8-7-7-7-7-8--7-8--10-8--10-12-----|
B|-13-13-13-13-12-12-12-12-101010108-8-8-8-10-8-10-12-10-12-13-----|
G|-----------------------------------------------------------------|
D|-----------------------------------------------------------------|
A|-----------------------------------------------------------------|
E|-----------------------------------------------------------------|

e|-------------------------------------------|
B|-------------------------------------------|
G|-2-2-2-2-2-5-4-2-2-2-2-2-5-4-0-2-2-2-2-----|
D|---------------------------------------0-2-|x2
A|--------------------------------------3----|
E|-------------------------------------------|

closing chord
e|-5-|
B|-5-|
G|-5-|
D|---|
A|---|
E|---|
song order
intro
verse
prechorus
intro (chorus)
verse


Important: The song above is NOT stored on the Chordie server. The original song is hosted at www.guitaretab.com. Chordie works as a search engine and provides on-the-fly formatting. Chordie does not index songs against artists/composers will. To remove this song please click here.

This song is displayed as text-only. Transposing and tuning is only available for chordpro-songs.

Login - add to songbook

Rating click stars to rate

Layout
Accuracy

SHARE PAGE  




You need to log in to post comments