When Your Gone

Avril Lavigne

e\----------------------------10----------|

B\--7h8----7h8----7h8----7h8--------------|
G\------9------9------9-------------------|
D\----------------------------------------| 3x
A\----------------------------------------|
E\--0------0------0------0----------------|

 D----
e\----------------------------------------|
B\-------87-------------------------------|
G\-----7----7-----------------------------|
D\--0-------------------------------------|
A\----------------------------------------|
E\----------------------------------------|


Verse 1:
 GBmEm
always needed time on my own
 CD
i never thought i need you there when i cry
 GBmEm
and the days feel like years when im alone
C D dedicated po ito
and the bed where you lie its made up on your side ky MCA....

Refrain:
 AmBm
when you walk away i count the steps that you take
 CD
do you see how much i need you right now

Chorus:
 CD
when you're gone the pieces of my heart
are missing you
 CD
when you're gone the face that came to know is missing to
 AmC
when you're gone the words i need to hear
 GD/F#CD
to always get me through the day and make it okay

i miss you

(Repeat Intro)

INTRO;
Em----C 3X
e\----------------------------10----------|
B\--7h8----7h8----7h8----7h8--------------|
G\------9------9------9-------------------|
D\----------------------------------------|  3x
A\----------------------------------------|
E\--0------0------0------0----------------|


 D----
e\----------------------------------------|
B\-------87-------------------------------|
G\-----7----7-----------------------------|
D\--0-------------------------------------|
A\----------------------------------------|
E\----------------------------------------|


Verse 2:
 GBmEm
I've never felt this way before
 CD
Everything that I do, reminds me of you
 GBmEm
And the clothes you left that lied on the floor
 CD
And they smell just like you, I love the things that you do

(Repeat Refrain and Chorus)

Bridge:
 BmCG
   We were made for each other, Out here forever
 DB7
I know we were yeahh!!!
 Em
know I ever wanted was for you to know
 C
 Everything I do I give my heart and soul
 A/C#D
 I can hardly breathe I need to feel you here with me yeahh!!!

(Repeat Chorus and intro)

paki comment lng po...
padangski@yahoo.com

par po ito sa mga avril...fans....mabuhay


A/C# Am B7 Bm C D D/F# Em G
variations - click chord images
Transpose chords:
Tuning:
Cool service:
View: Size:
A  A  A
Rating:
Layout:
  • Currently 3.2/5 Stars.
  • 1
  • 2
  • 3
  • 4
  • 5
 
Accuracy:
  • Currently 3.1/5 Stars.
  • 1
  • 2
  • 3
  • 4
  • 5
 
click stars to rate
Chordie recommends:
Get acoustic guitar lessons and electric guitar lessons at JamPlay.com
Songbook:
Login to add this song to your songbook
Support the artist
Preview/buy this song
MSN Music
Why this non-profit ad?

 
login to add comments/video/corrections