Guitar Tabs, Chords and Lyrics


Sick Sick Sex   Avulsed



Band: Avulsed
Album: Yearning for the Grotesque
Song: Sick Sick Sex
Tuning: C G C F A D
Record Label: Avantgarde music

this isnt gonna be exact but its closest i can get :D

--------------------------|
--------------------------|
--------------------------|
--------------------------|
-0-0-5-(7)----3-2-1-10----|
-0-0-trill-X3-3-2-1-10----|X3
 pm..         .........

---------------------------|
---------------------------|
---------------------------|
---------------------------|
-0-0-5-(7)----3-2-1-10--0--|
-0-0-trill-X3-3-2-1-10--0--|X3
 pm..         .........

small gap

--------------------------|
--------------------------|
--------------------------|
--------------------------|
-0-0-5-(7)----3-2-1-10----|
-0-0-trill-X3-3-2-1-10----|X4
 pm..         .........

--------------------------|
--------------------------|
--------------------------|
--------------------------|
-6-0-0-0-3-0-0-0-6-5-3----|
-6-0-0-0-3-0-0-0-6-5-3----|X8
   pm...   ...........

-----------------------------------|
-----------------------------------|
-----------------------------------|
-----------------------------------|
-0000000-0000000-0000000-4-1-0-----|
-0000000-0000000-0000000-4-1-0-X2--|
                         pm...

-----------------------------------|
-----------------------------------|
-----------------------------------|
--------------------------------ph-|
-0000000-0000000-0000000-4-1-0--3--|
-0000000-0000000-0000000-4-1-0-----|
                         pm...

------------------------------------|
------------------------------------|
------------------------------------|
------------------------------------|
-0000000-0000000-0000000-4-1-0------|
-0000000-0000000-0000000-4-1-0-X2---|X4
 let the notes ring      pm...

------------------------|
------------------------|
------------------------|
------------------3-----|
-----------2323-0-ah----|
-000000000-trill--------|X8

gtr1
----------------|
----------------|
----------------|
----------------|
-6-5-3-5-3-2----|
-6-5-3-5-3-2----|X8

gtr2
------------------|
------------------|
------------------|
------------------|
-11-10-8-10-8-7---|
------------------|X8

---------------------------------------|
---------------------------------------|
---------------------------------------|
-------2-------------------------------|
-5-4-5---5-4-8-7-5/7--4--3-2-0-3-2-0---|
-----------------trill---3-2-0-3-2-0---|
                         pm.........

-----------------------------------------|
-----------------------------------------|
-----------------------------------------|
-------2-----------------::::::::::::----|
-5-4-5---5-4-8-7-5/7--4--888888888888----|
-----------------trill-------------------|
: = 10

---------------------------------------|
---------------------------------------|
---------------------------------------|
-------2-------------------------------|
-5-4-5---5-4-8-7-5/7--4--3-2-0-3-2-0---|
-----------------trill---3-2-0-3-2-0---|
                         pm.........

-----------------------------------------|
-----------------------------------------|
-----------------------------------------|
-------2-----------------::::::::::::----|
-5-4-5---5-4-8-7-5/7--4--888888888888----|
-----------------trill-------------------|


Important: The song above is NOT stored on the Chordie server. The original song is hosted at www.guitaretab.com. Chordie works as a search engine and provides on-the-fly formatting. Chordie does not index songs against artists/composers will. To remove this song please click here.

This song is displayed as text-only. Transposing and tuning is only available for chordpro-songs.

Login - add to songbook

Rating click stars to rate

Layout
Accuracy

SHARE PAGE  




You need to log in to post comments