Guitar Tabs, Chords and Lyrics


Calm In Rain   Awkward Dream



-------------------------------------------------------------------------------
			 Calm In Rain - Awkward Dream
-------------------------------------------------------------------------------


pm= .................

Intro
e|---------------------------------------|
B|---------------------------------------|
G|-999999-9999999-9999999-999999-999999--|
D|-999999-9999999-9999999-999999-999999--|
A|-777777-6666666-0000000-999999-777777--|  x2
E|------------------------999999-777777--|

Verse
e|-----------------------------------------------------------------|
B|-----------------------------------------------------------------|
G|-99999999999--999999999999--9999999999--999999999--999999999999--|
D|-99999999999--999999999999--9999999999--999999999--999999999999--|
A|-77777777777--666666666666--0000000000--999999999--777777777777--|  x2
E|----------------------------------------999999999--777777777777--|
pm  ....... .     ....... .    ...... .    ..... .    ........ .

Chorus
e|----------------------------------------------------|
B|----------------------------------------------------|
G|-9999-----------------------------------------------|
D|-9999-6-7-9-9999-9-7-6-11111111-9-7-6-777-99-6h7p6--|
A|-7777-------9999-------11111111-------777-99--------|  x2
E|------------7777--------9-9-9-9-------555-77--------|

Verse
|--------------------------------------------------------------|
|--------------------------------------------------------------|
|--------------------------------------------------------------|
|---99--9--99--9---99--9--99--9---99--9--99--9---99--9---99--9-|
|-77--77-77--77--66--66-66--66--00--00-00--00------------------|
|----------------------------------------------99--99--77--77--|
pm..  .. ..  ..  ..  .. ..  ..  ..  .. ..  ..  ..  ..  ..  ..

Chorus
e|----------------------------------------------------|
B|----------------------------------------------------|
G|-9999-----------------------------------------------|
D|-9999-6-7-9-9999-9-7-6-11111111-9-7-6-777-99-6h7p6--|
A|-7777-------9999-------11111111-------777-99--------|  x2
E|------------7777--------9-9-9-9-------555-77--------|

Bridge
e|--------||------------------------------------------------------|
B|--------||------------------------------------------------------|
G|-9----9-||-----9----9------9----9------9----9-------------------|
D|-9----9-||--9---9----9--9---9----9--9---9----9---9---9---9---9--|
A|-7----7-||--7-----7-----6-----6-----0-----0---------------------| x2
E|--------||--------------------------------------9---9---7---7---|

Chorus
e|-------------------------------------------------------------|
B|-------------------------------------------------------------|
G|-9999--------------------------------------------------------|
D|-9999-66677799-9999-99977766-11111111-99977766-777-99-6h7p6--|
A|-7777----------9999----------11111111----------777-99--------|  x2
E|---------------7777-----------9-9-9-9----------555-77--------|

End On
e|-----|
B|-----|
G|--9--|
D|--9--|
A|--7--|
E|-----|



Important: The song above is NOT stored on the Chordie server. The original song is hosted at www.guitaretab.com. Chordie works as a search engine and provides on-the-fly formatting. Chordie does not index songs against artists'/composers' will. To remove this song please click here.

This song is displayed as text-only. Transposing and tuning is only available for chordpro-songs.

Login - add to songbook

Rating click stars to rate

Layout
Accuracy

SHARE PAGE  




You need to log in to post comments