Guitar Tabs, Chords and Lyrics


The Perfect Day   Awkward Dream



-------------------------------------------------------------------------------
	             The Perfect Day - Awkward Dream
-------------------------------------------------------------------------------

By:m1j0y3korn@aol.com

palm mute = ..........
x = mute that string
/ = slide
~ = let note ring


Intro
e|---------------------------------------------------------|
B|---------------------------------------------------------|
G|---------------------------------------------------------|
D|-999-111111-131313-111111-141414-131313-1111111111111111-|
A|-xxx--x-x-x--x-x-x--x-x-x--x-x-x--x-x-x--x-x-x-x-x-x-x-x-|
E|-777--9-9-9-111111--9-9-9-121212-111111--9-9-9-9-9-9-9-9-|

e|----------------------------------------------------|
B|----------------------------------------------------|
G|-999-111111-131313-141414-161616161616-141414141414-|
D|-xxx--x-x-x--x-x-x--x-x-x--x-x-x-x-x-x--x-x-x-x-x-x-|
A|-777--9-9-9-111111-121212-141414141414-121212121212-|
E|----------------------------------------------------|

e|------------------------------------------------|
B|------------------------------------------------|
G|-999-111111-999-131313-141414-131313-1111111111-|
D|-xxx--x-x-x-xxx--x-x-x--x-x-x--x-x-x--x-x-x-x-x-|
A|-777--9-9-9-777-111111-121212-111111--9-9-9-9-9-|
E|------------------------------------------------|

e|--------------------------------------------|
B|--------------------------------------------|
G|-999-111111-131313-141414-131313-111111-999-|
D|-xxx--x-x-x--x-x-x--x-x-x--x-x-x--x-x-x-xxx-|
A|-777--9-9-9-111111-121212-111111--9-9-9-777-|
E|--------------------------------------------|

Verse
e|------------------------------------------------------------------|
B|------------------------------------------------------------------|
G|-----------22-2-----------22-2-----------22-2-----------777777777-|
D|-44-4-44-4-22-2-44-4-44-4-22-2-44-4-44-4-22-2-44-4-44-4-777777777-|
A|-44-4-44-4-00-0-44-4-44-4-00-0-44-4-44-4-00-0-44-4-44-4-555555555-|
E|-22-2-22-2------22-2-22-2------22-2-22-2------22-2-22-2-----------|
pm ..   ..   ..   ..   ..   ..   ..   ..   ..   ..   ..

e|------------------------------------------|
B|------------------------------------------|
G|------------------------------------------|
D|-777777777-999999999-777777777-9999999999-|
A|-777777777-999999999-777777777-9999999999-|
E|-555555555-777777777-555555555-7777777777-|

Chorus
e|---------------------------------------|
B|---------------------------------------|
G|-----------77777777-22222222-----------|
D|-444444444-77777777-22222222-222222222-|
A|-444444444-55555555-00000000-222222222-|
E|-222222222-------------------000000000-|

Verse
e|------------------------------------------------------------------|
B|------------------------------------------------------------------|
G|-----------22-2-----------22-2-----------22-2-----------777777777-|
D|-44-4-44-4-22-2-44-4-44-4-22-2-44-4-44-4-22-2-44-4-44-4-777777777-|
A|-44-4-44-4-00-0-44-4-44-4-00-0-44-4-44-4-00-0-44-4-44-4-555555555-|
E|-22-2-22-2------22-2-22-2------22-2-22-2------22-2-22-2-----------|
pm ..   ..   ..   ..   ..   ..   ..   ..   ..   ..   ..

e|------------------------------------------|
B|------------------------------------------|
G|------------------------------------------|
D|-777777777-999999999-777777777-9999999999-|
A|-777777777-999999999-777777777-9999999999-|
E|-555555555-777777777-555555555-7777777777-|

Chorus
e|---------------------------------------|
B|---------------------------------------|
G|-----------77777777-22222222-----------|
D|-444444444-77777777-22222222-222222222-|
A|-444444444-55555555-00000000-222222222-| x4
E|-222222222-------------------000000000-|

Breakdown
e|----------------------------------------------------------------|
B|----------------------------------------------------------------|
G|------7~--------7~-------------7777777777------------7777777777-|
D|-4~---7~---4~---7~--4444444444-7777777777-4444444444-7777777777-|
A|-4~---5~---4~---5~--4444444444-5555555555-4444444444-5555555555-|
E|-2~--------2~-------2222222222------------2222222222------------|
pm                    ......................................

e|-----------------------------------------------|
B|-----------------------------------------------|
G|-------------77777777777------------7777777777-|
D|-44444444444-77777777777-4444444444-7777777777-|
A|-44444444444-55555555555-4444444444-5555555555-|
E|-22222222222-------------2222222222------------|

Outro
e|-------------------------------------|    |----|
B|-------------------------------------|    |----|
G|-----------------777777777-4444444-2-|    |----|
D|-44444/777777777-777777777-4444444-2-|    |-4x-|
A|-44444/777777777-555555555-2222222-0-| x4 |-4x-|
E|-22222/555555555---------------------|    |-2x-|

Let the bass do the outro once then end the song with
e|----|
B|----|
G|----|
D|-4x-|
A|-4x-|
E|-2x-|



Important: The song above is NOT stored on the Chordie server. The original song is hosted at www.guitaretab.com. Chordie works as a search engine and provides on-the-fly formatting. Chordie does not index songs against artists/composers will. To remove this song please click here.

This song is displayed as text-only. Transposing and tuning is only available for chordpro-songs.

Login - add to songbook

Rating click stars to rate

Layout
Accuracy

SHARE PAGE  




You need to log in to post comments