Chordie logo


Lukna Deu  Axe

E|--3---3----3--3----3--3----3--3-----|


B|--3---3----3--3----3--3----3--3-----|


G|------------------------------------|

D|--------0h2-------------0h2---------|
A|-----2-------3-------2-------3------|
E|-3--------------0h3-----------------|
[G]Lukna deu ma[Cadd9]lai timro kesama
[G]tyaha dherai shita[G]l chha
[G]Nidauna de[Cadd9]u timro parelima
[G]tyaha dherai sapan[G]a chha
[C]Mutu bhitr[G]a raakha malai
[C]Jiune aadhaa[G]r deu malai
[C]Mutu bhitr[G]a raakha malai
[C]Jiune aadha[G]ar deu mala[D]i
E|------------------------------------------|
B|------------------------------------------|
G|--------------------0---------------------|
D|--------------2-20h2----------------------|
A|----23-32-32-------------23-32-32---------|
E|-3-3---------3--------3-3---------30-0123-|


[F]Jaba katai [G]bhetchhu timilai
[F]ekohoro [G]tolai rahanchhu ma
[F]Hatkelale [G]muhar chopdai
[F]laaj maandai [G]bhaagi dinchhau timi
[C]Muskauda[G]i isarale
[C]Lajaud[G]ai bolau malai
[C]Mutu bhitr[G]a raakha malai
[C]Jiune aadha[G]ar deu mala[D]i

[F]Noulak[G]he tara majhma
[F]roje mail[G]e kebal junlai
[F]Mero mut[G]u majhko dhukdhuki
[F]soche mail[G]e kebal timilai
[C]Dhadki de[G]u aba timi
[C]Bachairakh[G]a timi malai
[C]Mutu bhitr[G]a raakha malai
[C]Jiune aadha[G]ar deu mala[D]i

Important: The song above is NOT stored on the Chordie server. The original song is hosted at www.guitaretab.com. Chordie works as a search engine and provides on-the-fly formatting. Chordie does not index songs against artists/composers will. To remove this song please click here.

Text color:
Chord color:
Chord grids: 
Font size:    
Page size: 

C Cadd9 D F G
variations - click chord images

Login - add to songbook

Transpose chords

Tuning

Rating click stars to rate

Layout
Accuracy

SHARE PAGE  




You need to log in to post comments