Seagull

Bad Company

-----------------------------------------------------------------------

-----------------------------------------------------------------------

 dduudduudduudduu
|--2---2---2---2----2---2---2---2--------2---2---2--------2---2---2---|

|--3---3---3---3----3---3---3---3--------3---3---3--------3---3---3---|
|.-0h2-2---2---2----0h2-2---2---2--------2---2---2--------0---0---0--.|
|.-0---0---0---0----0---0---0---0--------0---0---0--------0---0---0--.|
|------------------------------------0h3~~~~~~~~~~~~~~0h2~~~~~~~~~~~~-|
|---------------------------------------------------------------------|

Verses:
The guitar follows the above format, for the most part. Listen to the song, and
you will hear where the D chord is extended and shortened in the beginning of the
intro/verse progression above. Sorry if that sounds confusing, but just listen
to the song, and you'll understand what I mean.

Intro:

Above progression goes six times before verses start(vocal adlibs over guitar
progression)

Verse 1:

 DCGD
 Seagull you fly, across the horizon
 DCGD
 Into the misty mornin' sun
 DCGD
 Nobody asks you where you are going
 CGD
And nobody knows where you're from

Verse 2:

 DCGD
 There is a man asking a question
 DCGD
 Is this really the end of the world?
 DCGD
 Seagull you must have known for a long time
 CGD
 The shape of things to come

Chorus 1:
(Chords below are just strummed, no picking progression until the end)
 DD
 Now you fly
 DA
Through the sky
 CGD
 Never asking why
 DD
 And you fly
 DAAsus4A
 All around   
 C
Till somebody
 GD
 Shoots you down

(vocal adlib over intro progression x4)

Verse 3:

 DCGD
 Seagull you fly, across the horizon
 DCGD
 Into the misty mornin' sun
 DCGD
 Nobody asks you where you are going
 CGD
 Nobody knows where you're from

Chorus 2:

 DD
 Now you fly
 DA
 Through the sky
 CGD
 Never asking why
 DD
 And you fly
 DA
 All around
 CG
Till somebody, yeah
 GDCGD
 Shoots you down            
 CGD
 Mmmmmhmmmm yeah

Verse 4/Outro:
(intro progression w/variation played over all words until outro chordal progression)

Intro w/variation:
 D
                                                                                                        
|--2---2---3p2-3p2------2---2---2--------2---2---2---|

|--3---3---3---3--------3---3---3--------3---3---3---|
|.-0h2-2---2---2--------2---2---2--------0---0---0--.|
|.-0---0---0---0--------0---0---0--------0---0---0--.|
|-------------------0h3~~~~~~~~~~~~~~0h2~~~~~~~~~~~~-|
|----------------------------------------------------|
(this progression is played once for every line of lyric below, and there are 12
lines of lyric, so it is played 12 times.)

Seagull you fly

Seagull you fly away

And you fly away today

And you fly away tomorrow

And you fly away

Leave me to my sorrow

Mmmm hmmm mmmmmmm

Seagull go on and fly

Mmmm hmmm mmmmmmm

Fly to your tomorrow

Leave me to my sorrow

Haaa aahhh ahhh yaaaahaaa

(After this last line, the following is played, then directly segues into the outro)

|--2---2---2p3-3p2------2---2---2--------2---2---2---|

|--3---3---3---3--------3---3---3--------3---3---3---|
|--0h2-2---2---2--------2---2---2--------2---2---2---|
|--0---0---0---0--------0---0---0--------0---0---0---|
|-------------------0h3~~~~~~~~~~~~~~--3~~~~~~~~~~~~-|
|----------------------------------------------------|
|------2---2---2--------2---2---2--|
|------3---3---3--------3---3---3--|
|------0---0---0--------0---0---0--|
|------0---0---0--------0---0---0--|
|-0h2~~~~~~~~~~~~~~--2~~~~~~~~~~~~-|
|----------------------------------|


Outro:
 DFGBbCD
                                                                                                        
|-2-2--2//5-5--5//7-7-7-7-7--7//10-10--10//12-12--12//14-14-14-^14~~-|

|-3-3--3//6-6--6//8-8-8-8-8--8//11-11--11//13-13--13//15-15-15-15~~-|
|-2-2--2//5-5--5//7-7-7-7-7--7//10-10--10//12-12--12//14-14-14-/14~~-|
|-0-0--0//0-0--0//0-0-0-0-0--0//-0--0---0//-0--0---0//-0--0--0--0~~-|
|--------------------------------------------------------------------|
|--------------------------------------------------------------------|

Fine.


Corrected by michaelfleming1. View original
A Asus4 Bb C D F G
variations - click chord images
Transpose chords:
Tuning:
Cool service:
View: Size:
A  A  A
Rating:
Layout:
  • Currently 3.4/5 Stars.
  • 1
  • 2
  • 3
  • 4
  • 5
 
Accuracy:
  • Currently 3.1/5 Stars.
  • 1
  • 2
  • 3
  • 4
  • 5
 
click stars to rate
Chordie recommends:
Learn to play guitar with video-based, online guitar lessons at JamPlay.com
Songbook:
Login to add this song to your songbook
Support the artist
Preview/buy this song
MSN Music
Why this non-profit ad?

 
login to add comments/video/corrections