Chordie logo

Sorrrow Acoustic   Bad Religion



SOLO
----7-5--------------------------------------------------------------------|
--------8/7-5-----7--------------------------------------------------------|
--------------7/9-----9-7h9-7-------7-7------9b--7---------7---------------|
------------------------------9-7h9----------------9--7h9----9-7-----------|
-----------------------------------------------------------------9-7-------|
---------------------------------------------------------------------------|

--------------------------------------------------------------------------------|
-------------------------------------------------7-8-7--------------------------|
---------------------------------------------/9--------9-7-9p7-------7-----6h7--|
--------------------7---9/7------------------------------------9-7h9------------|
---------7--8--9------9-----9-7---9-7-------------------------------------------|


Important: The song above is NOT stored on the Chordie server. The original song is hosted at www.guitaretab.com. Chordie works as a search engine and provides on-the-fly formatting. Chordie does not index songs against artists/composers will. To remove this song please click here.

This song is displayed as text-only. Transposing and tuning is only available for chordpro-songs.

Login - add to songbook

Rating click stars to rate

Layout
Accuracy

SHARE PAGE  



You need to log in to post comments