Guitar Tabs, Chords and Lyrics


All Along   Bad Religion



Tabbed By Danc446, danc446@yahoo.com
THIS IS A VERY EASY SONG TO MEMORIZE!!!

Intro:
     A5
e|---------|
B|---------|
G|---------|
D|----7----|
A|----7----|
E|----5----|

REST OF SONG (Keep repeating)
    A5          C5           G5          A5
e|------------------------------------------------------|
B|------------------------------------------------------|
G|---------------5--5-5--5------------------------------|
D|---7--7-7--7---5--5-5--5---5--5-5--5---7--7-7--7------|
A|---7--7-7--7---3--3-3--3---5--5-5--5---7--7-7--7------|


Important: The song above is NOT stored on the Chordie server. The original song is hosted at www.guitaretab.com. Chordie works as a search engine and provides on-the-fly formatting. Chordie does not index songs against artists'/composers' will. To remove this song please click here.

This song is displayed as text-only. Transposing and tuning is only available for chordpro-songs.

Login - add to songbook

Rating click stars to rate

Layout
Accuracy

SHARE PAGE  




You need to log in to post comments