Chordie logo


Unacceptable   Bad Religion



Bad Religion - Unacceptable
Standard tuning


(intro/chorus)
|--------------------------------|
|--------------------------------|
|--7-7-7--------------------10---|
|--7-7-7--8-8-8--7-7-7-7-7--10---|
|--5-5-5--8-8-8--7-7-7-7-7--8----|
|---------6-6-6--5-5-5-5-5-------|

(verse)
|------------------------------------|
|------------------------------------|
|--7-7-7-7-7-7-7-7-7-7-7-7-----------|
|--7-7-7-7-7-7-7-7-7-7-7-7---8-7-----|
|--5-5-5-5-5-5-5-5-5-5-5-5---8-7-----|
|----------------------------6-5-----|

(bridge)
|----------------------|
|----------------------|
|-12--14--15--17--19---|
|-12--14--15--17--19---|
|-10--12--13--15--17---|
|----------------------|
  tr~~~~~~~~~~~~~~~~~~

(solo)
|-------------13----13---13-------------------------------------------------|
|-11-----11---12----12---12-------------------------------------------------|
|-12b/r--12b-(13)--(13)-(13)-12b-p10---------------12h14p12----12\10----12~-|
|------------------------------------12____--10h12----------12-------12-----|
|---------------------------------------------------------------------------|
|---------------------------------------------------------------------------|


------------------------------------------------------------------------------|
---------------------------------------------------------------------\---\---\|
-12p11p10--------------------------------------------------------------\---\--|
----------12---------12b-r-10/12----------------------------------------------|
--------------10/12-(12)------------10~~~-----------10h12p10-10b~~------------|
---------------------------------13-------13--10h13---------------------------|

(outro)
|-------------------------------------------|
|-------------------------------------------|
|--------------------------------------13---|
|-10-10-10-----------------------------13---|
|-8--8--8---11-11-11--10-10-10-10-10---11---|


Important: The song above is NOT stored on the Chordie server. The original song is hosted at www.guitaretab.com. Chordie works as a search engine and provides on-the-fly formatting. Chordie does not index songs against artists/composers will. To remove this song please click here.

This song is displayed as text-only. Transposing and tuning is only available for chordpro-songs.

Login - add to songbook

Rating click stars to rate

Layout
Accuracy

SHARE PAGE  




You need to log in to post comments