Chordie logo

content loaded from cache

Umagang Kay Ganda  Bamboo

e|--------------------|


B|--------------------|


D|---7----5-—---------| 8x


A|---7---—5-----------|


E|---5----3-----------|


G|--------------------|




Basta’t [Bm]tayo’y magka[C#m]sama
[D]Laging mayroong[E] umagang [A]kay ganda
Pagsikat ng [Bm]araw, May dalang li[C#m]wanag

e|-----------------------|
B|-----------------------|
G|--4---6---7---8--------|
D|--4---6--—7---8---7----|
A|--2---4--—5---6---7----|
E|------------------5----|


C# F#m- D ( MuTe )
Sa ating pangarap, WooH. ..
A – D – A - G
Haharapin natin…

e|----------------------|
B|----------------------|
G|-----6----10---7------|
D|-----6--—-10---7------|
A|-----4-—--8----5------|
E|----------------------|


Verse 2:

Simple lang, kasama ka naman
Kung ayaw nila, sa akin ok lang
Kung di mo makuha, sa tingin . .
Idaan mo sa taas, kung ayaw pa rin

e|--------------------|
B|--------------------|
G|--------------------|
D|---7----5-—---------| 8x
A|---7---—5-----------|
E|---5----3-----------|


Verse 3:

Gumising na (gumising na)
Araw ng pag-asa’y narito na
Dumating din, haharapin natin

e|--------------------|
B|--------------------|
G|--------------------|
D|---7----5-—---------| 8x
A|---7---—5-----------|
E|---5----3-----------|


INTERLUDE: ( Do chorus Chords )

Chorus:

Basta’t [Bm]tayo’y magka[C#m]sama
[D]Laging mayroong[E] umagang [A]kay ganda
Pagsikat ng [Bm]araw, May dalang li[C#m]wanag

e|-----------------------|
B|-----------------------|
G|--4---6---7---8--------|
D|--4---6--—7---8---7----|
A|--2---4--—5---6---7----|
E|------------------5----|


C# F#m- D ( MuTe )
Sa ating pangarap, WooH. ..

e|----------------------|
B|----------------------|
G|-----6----10---7------|
D|-----6--—-10---7------|
A|-----4-—--8----5------|
E|----------------------|


A – D – A - G
Haharapin natin… . ..

Important: The song above is NOT stored on the Chordie server. The original song is hosted at www.guitaretab.com. Chordie works as a search engine and provides on-the-fly formatting. Chordie does not index songs against artists/composers will. To remove this song please click here.

A Bm C#m D E
variations - click chord images

Transpose chords

Tuning

Rating click stars to rate

Layout
Accuracy

SHARE PAGE  



You need to log in to post comments