Masaya

Bamboo

-------------------------------------------------------------------------------

-------------------------------------------------------------------------------

 GC9Am7A
e|-----3----|    |----3-----|  |----------|   |----------|
A|-----3----|    |----3-----|  |----1-----|   |----3-----|
D|----------|    |----------|  |----------|   |----------|
G|----------|    |----2-----|  |----2-----|   |----2-----|
B|-----2----|    |----3-----|  |----------|   |----------|
E|-----3----|    |----------|  |----------|   |----------|


 GC9Am7
 akoy malungkot na naman,amoy chico na ako
 A
ilang tagay na hindi pa rin tulog
 GC9Am7A-Am7
 tanong ko lang sa langit kung bakit pumangit  
 GC9
ang dating masaya ngayon panay problema
Am7 A(BREAK)
bumabalot sa mundo bakit ganito

(CHORUS)

 GC9Am7
 Ang pagibig ganyan talaga  
 AAm7GC9
Pag bago Pang pagibig ganyan talaga
Am7(break)
masaya

(do the chords in the 1st verse)
pag ka gising ko,nakita ko si juan
na syang adik sa aming lugar
parang droga daw ang bisa na ginamit nya kanina
sa una rang daw masarap

(chorus)2x
ang pagibig ganyan talaga akoy nilamon na ng pagibig
ganyan talaga masaya

sa susunod nalang ung adlib
ghe mga chong astig tong kantang 2 para sa mga senti
jan hehehe !!!



A Am7 C9 G
variations - click chord images
Transpose chords:
Tuning:
Cool service:
View: Size:
A  A  A
Rating:
Layout:
  • Currently 2.8/5 Stars.
  • 1
  • 2
  • 3
  • 4
  • 5
 
Accuracy:
  • Currently 3.3/5 Stars.
  • 1
  • 2
  • 3
  • 4
  • 5
 
click stars to rate
Chordie recommends:
Get acoustic guitar lessons and electric guitar lessons at JamPlay.com
Songbook:
Login to add this song to your songbook
Support the artist
Preview/buy this song
MSN Music
Why this non-profit ad?

 
login to add comments/video/corrections