eToCache5 = ""; ?> Schijt Aan De Bazen by Band Zonder Banaan - guitar chords, guitar tabs and lyrics - chordie

Schijt Aan De Bazen

Band Zonder Banaan

 AEADA
E--|------------|------------|--------------|
B--|------------|------------|--------------|
G--|--------6---|9---6-----6-|-7--9-7-6-7-9-|
D--|-7--7-9---7-|------------|--------------|
A-7|------------|------------|--------------|
E--|------------|------------|--------------|


 EAEA
E---------------|------------|------------|
B---------------|------------|------------|
G---------------|--------6---|9---6-----6-|
D-9-7-9-11-9----|-7--7-9---7-|------------|
A-------------7-|------------|------------|
E---------------|------------|------------|


 DEA
E--------------|-------------|
B--------------|-------------|
G-7-9-6-7------|-------------|
D---------9--7-|-7-----------|
A--------------|-------------|
E--------------|-------------|


 A
(repeat intro)

 AEA
We hebben schijt aan de bazen
 DAE
De baas die gebruikt ons allemaal
 AEA
We hebben schijt aan de bazen
 DEA
Hij denkt alleen aan kapitaal

 AE
Het gaat erom het resultaat
 A
Van 's morgens vroeg tot 's avonds laat
 D
Winst is het enige dat telt
 EA
 Altijd maar meer, geld, geld, geld

(Intro)

 AE
De baas die reis met z'n vette pens
 A
In een te dure Mercedes-Benz 
 D
Met een GSM op zakformaat
 EA
 Te weinig flappen op onze salaris staat

 A
 Schijt aan de bazen (schijt aan de bazen)
 A
 Schijt aan de bazen (schijt aan de bazen)

 AEA
We hebben schijt aan de bazen
 DAE
De baas die gebruikt ons allemaal
 AEA
We hebben schijt aan de bazen
 DEA
Hij denkt alleen aan kapitaal

 AEA
We hebben schijt aan de bazen
 DAE
De baas die gebruikt ons allemaal
 AEA
We hebben schijt aan de bazen
 DEA
Hij denkt alleen aan kapitaal

 A
 Schijt aan de bazen


A D E
variations - click chord images
Transpose chords:
Tuning:
Cool service:
View: Size:
A  A  A
Rating:
Layout:
  • Currently 2.7/5 Stars.
  • 1
  • 2
  • 3
  • 4
  • 5
 
Accuracy:
  • Currently 3.2/5 Stars.
  • 1
  • 2
  • 3
  • 4
  • 5
 
click stars to rate
Chordie recommends:
Learn to play guitar with video-based, online guitar lessons at JamPlay.com
Songbook:
Login to add this song to your songbook
Support the artist
Preview/buy this song
MSN Music
Why this non-profit ad?

 
login to add comments/video/corrections