Guitar Tabs, Chords and Lyrics


All I Need  Barbies Cradle

    [D/F#]      [DM7]       [G]    [Dsus/B]        [A5]    [D9/F#]       [D9/B]                                      
e|---2-----2-----3-----3-----0-----0-----0---|
B|---3-----2-----3-----3-----0-----3-----3---|
G|---2-----2-----0-----2-----2-----2-----2---|
D|---0-----0-----0-----0-----2-----0-----0---|
A|---0-----x-----2-----2-----0-----0-----2---|
E|---2-----x-----3-----0-----0-----2-----0---|


Intro: D/F#-DM7--D/F#-DM7 (4x)

Verse 1:
in[D/F#]side of my h[DM7]eart is an [D/F#]army of [DM7]angels
[D/F#]just 'cause i [DM7]let you [D/F#-DM7]go
[D/F#]oh, volu[DM7]nteers they are[D/F#] here
to love and [DM7]help me
[D/F#]only 'cause [DM7]i said [D/F#-DM7-]no


Refrain 1:
to the ki[G]ller eye[Dsus/B]
that inv[A5]ite me to do t[D9/F#]hings
i would [D9/B]have to lie a[D9/F#-G-A5]bout
and it's b[G]etter now[Dsus/B]
we are s[A5]afe you know i [D9/F#]love
you more from f[D9/B]ar away[D9/F#]
now that [G]all i n[A5]eed is [D/F#-DM7--D/F#-DM7]god


Interlude: D/F#-DM7--D/F#-DM7

Verse 2:
[D/F#]hey little [DM7]girl do you s[D/F#]till have
things that [DM7]haunt you
are [D/F#]all the words i [DM7]say un[D/F#-DM7]clear
you [D/F#]know i was [DM7]there
just a [D/F#]while ago[DM7]
[D/F#]so mise[DM7]rable un[D/F#]til i told
the t[DM7]ruth and p[D/F#-DM7]rayed


Refrain 2:
and the k[G]iller ey[Dsus/B]e
that inv[A5]ite me to do t[D9/F#]hings
i would h[G]ave to lie [D9/B]about
[G]lost their sp[A5]arkle
and it's b[G]etter now[Dsus/B]
we are s[A5]afe you know i [D9/F#]love
you more from f[D9/B]ar away[D9/F#]
now that [G]all i n[A5]eed is [D/F#-DM7--D/F#-DM7]god

Interlude: D/F#-DM7--D/F#-DM7

Bridge:
e|---------------------------|--------------------------------------------|
B|---------------------------|--------------------------------------------|
G|------------------------0--|------------------------0-------------------|
D|------0-----0-----0---0----|------0-----0-----0---0---------------------|
A|--0-2-----0-----0---0------|--0-2-----0-----0---0-----------------------|
E|--------2-----3------------|--------2-----3-----------------------------|  

inside of my heart
e|---------------------------------|--------------------------0-----------|
B|---------------------------------|--------------------------2-----------|
G|------------------------------0--|--------------------------2--(pause)--|
D|------0-----------0-----0---0----|------0----------0-----0--2-----------|
A|--0-2-----------0-----0---0------|--0-2----------0-----0----0-----------|
E|--------------2-----3------------|-------------2-----3------------------|

is a glorious army waiting for war

Refrain 2:
and the k[G]iller ey[Dsus/B]e
that inv[A5]ite me to do t[D9/F#]hings
i would h[G]ave to lie [D9/B]about
[G]lost their sp[A5]arkle
and it's b[G]etter now[Dsus/B]
we are s[A5]afe you know i [D9/F#]love
you more from f[D9/B]ar away[D9/F#]
now that [G]all i n[A5]eeded...
in[D/F#]side of my h[DM7]eart
is an [D/F#]army of [DM7]angels
in[D/F#]side of my h[DM7]eart
is an [D/F#]army of [DM7]angels
in[D/F#]side of my h[DM7]eart
is an [D/F#]army of [DM7]angels
in[D/F#]side of my h[DM7]eart
D/F# DM7 D/F#-DM7--D/F#-DM7(4x)
is an army, is an army of angels

i [D/F#]need you so [DM7]much
i am [D/F#]dust with[DM7]out you
i'd[D/F#] lose all the [DM7]universe
j[D/F#]ust to have [DM7]you
i [D/F#]need you so [DM7]much
i am [D/F#]dust without[DM7] you
i'[D/F#]d lose all the [DM7]universe
j[D/F#]ust to have [DM7]you

Outro:
e|----------------------|
B|--10----5----10----5--|
G|--11----6----11----6--|  (4x)
D|---9----4-----9----4--|
A|--10----5----10----5--|
E|----------------------|
-------------------------------------------------------------------

Transcribed by: Josef Villanueva and Jeno Villanueva
For comments and suggestions, please email us.
(opep_vida_22@yahoo.com or jenofutbol@hotmail.com)

Important: The song above is NOT stored on the Chordie server. The original song is hosted at www.guitaretab.com. Chordie works as a search engine and provides on-the-fly formatting. Chordie does not index songs against artists'/composers' will. To remove this song please click here.

Text color:
Chord color:
Chord grids: 
Font size:    
Page size: 

A5 D/F# D9/F# Dm7 Dsus/B G
variations - click chord images

Login - add to songbook

Transpose chords

Tuning

Rating click stars to rate

Layout
Accuracy

SHARE PAGE  




You need to log in to post comments