Lovers In A Dangerous Time

Barenaked Ladies

------------------------------------------------------


 Cborus
LEGEND:  means "Chorus" is being defined
(Chorus) means to play the already defined "Chorus"
------------------------------------------------------


Guitar Capo 3
 Guitar - Riff 1
 GAmFF
E|:-------------------|-------------------|-------------------|-------------------:|
B|:-------------------|-------------------|-------------------|-------------------:|
G|:-------------------|---------0-0---0---|-----0h2---0---x-x-|-----0h2---0---x-x-:|
D|:---------0---0---0-|-----0h2-----2---2-|---------3---3-x-x-|---------3---3-x-x-:|
A|:-----0h2-------2---|-0-0---------------|-3-3---------------|-3-3---------------:|
E|:-3-3-------3-------|-------------------|-------------------|-------------------:|

 Bass/cello part transcribed for guitar
 GAmFFGAmFFG
E|-------|------|----|-------|-----|------|------------|---------|------|
B|-------|------|----|-------|-----|------|------------|---------|------|
G|-------|------|-5~~|~~~----|-7~~~|/9--9-|-9~\7--7~\5-|-5-4-----|------|
D|---5~~-|-7~~~-|----|-----7-|-----|------|------------|-----5---|------|
A|-------|------|----|-------|-----|------|------------|-------3-|------|
E|-------|------|----|-------|-----|------|------------|---------|-3~~~-| 


 GAmF
 Don't the hours grow shorter as the days go by
 GAmF
 You never get to stop and open your eyes
 GAmF
 One day you're waiting for the sky to fall
 GAmF
 And next you're dazzled by the beauty of it all

 GAmF
 Lovers in a dangerous time
 GAmF
 Lovers in a dangerous time

 GAmF
 These fragile bodies of touch and taste
 GAmF
 This vibrant skin, this hair like lace
 GAmF
 Spirits open to the thrust of grace
 GAmF
 Never a breath you can afford to waste

(Chorus) x2 {Guitar starts playing variations
on the chords similar to Riff 1}

 Bass/cello solo
  {Guitar repeat Riff 2 throughout
while bass/cello does lead}
 Guitar - Riff 2
| | | |
E|:--------------------:|
B|:-----0h1---0--------:|
G|:---0-----0---0---0--:|
D|:---------------0----:|
A|:--------------------:|
E|:--------------------:|


 bass/cello lead transcribed for guitar
 GAmFFGAmFFG
E|-------|------|----|--------|----|-----|-------|-----------------|-------|
B|-------|------|----|--------|----|-----|-------|-------------5-6~|~~--8~~|
G|-------|------|----|--------|----|---4-|-4~-2~~|~~-4-5-5h7-5-----|-------|
D|-------|------|----|------2-|-5~~|~~---|-------|-----------------|-------|
A|-------|------|-3~~|~~--3---|----|-----|-------|-----------------|-------|
E|----3~~|-5~~~-|----|--------|----|-----|-------|-----------------|-------|

 AmFFGAmFFG
                                              ...
E|---5~~----|---------|----|---------|---------|---------|----------|-----|
B|~~----5~~-|-8~~-----|----|-5-----5-|---------|---------|----------|-----|
G|----------|------5~~|~~~-|----7----|-7--5--7-|-5--4----|----------|-----|
D|----------|---------|----|---------|---------|-------5~|~~~-------|-----|
A|----------|---------|----|---------|---------|---------|----5---2-|-----|
E|----------|---------|----|---------|---------|---------|----------|-3~~-|


 GAmF
 When you're lovers in a dangerous time
 GAmF
 Sometimes you're made to feel as if your love's a crime
 GAmF
 But nothing worth having comes without some kind of fight
 GAmF
 You gotta kick at the darkness 'til it bleeds daylight


 GAmFF
 GAmFF
 We-eeeeee were lovers in a dangerous time  
 GAmFF
 We-eeeeee were lovers in a daa-aaangerous time  Luh-luh-
 GAmFF
 luuvers  Luh-luh-luuvers Luh-luh-luuveeeeeeers  
 GAmFF
  Uuuuhhhhh-oooooooooo-oooooooooo  Luh-luh-
 GAmFF
 luuvers in a dangerous time  


Am F G
variations - click chord images
Transpose chords:
Tuning:
Cool service:
View: Size:
A  A  A
Rating:
Layout:
  • Currently 3.2/5 Stars.
  • 1
  • 2
  • 3
  • 4
  • 5
 
Accuracy:
  • Currently 3.2/5 Stars.
  • 1
  • 2
  • 3
  • 4
  • 5
 
click stars to rate
Chordie recommends:
Learn to play guitar with video-based, online guitar lessons at JamPlay.com
Songbook:
Login to add this song to your songbook
Support the artist
Preview/buy this song
MSN Music
Why this non-profit ad?

 
login to add comments/video/corrections