Chordie logo


Yeah   Barney





          (play 3 times, and sync. with rythm. gtr.)


   Guitar 1
                INTRO(clean)                                   Guitar1
   E--------------------*---------------------------*3-|   (play once, then
   B--9--9--10--9-------*--12--12--13--12--------------|T    play lead)
   G--9-----------9---9-*--12-------------12---12------|I
   D--9-------------9---*--12----------------12--------|M
   A--------------------*------------------------------|E
   E--------------------*------------------------------|S


   Guitar 2

 Play E thru first riff * Play D thru second riff (repeat4x)


   Guitar 1(lead)
   .DISTORTED.
   *continue rythm thru lead part*
   E-----------------------------------------------------|  (repeat thru
   B--9--9--10--9--9--10--12--12--13--15--13--12--13--9--|   begining 4x)
   G-----------------------------------------------------|
   D-----------------------------------------------------|
   A-----------------------------------------------------|
   E-----------------------------------------------------|


   speed up tempo (rythm)



Important: The song above is NOT stored on the Chordie server. The original song is hosted at www.guitaretab.com. Chordie works as a search engine and provides on-the-fly formatting. Chordie does not index songs against artists/composers will. To remove this song please click here.

This song is displayed as text-only. Transposing and tuning is only available for chordpro-songs.

Login - add to songbook

Rating click stars to rate

Layout
Accuracy

Jango Player

SHARE PAGE  




You need to log in to post comments