Guitar Tabs, Chords and Lyrics


Chariots Of Fire   Bathory


|------------------------------------------|



|------------------------------------------|



|------------------------------------------|



|-12----12-11---------12----12-11----------|



|-10----10-9----------10----10-9-----------|



|-0--00-0--0--0-000-000--00-0--0--0-000-00-|



|----------------------------------------|



|----------------------------------------|



|----------------6-7-----------------6-7-|



|------8-8-------6-7-------8-8-------6-7-|



|------8-8-------4-5-------8-8-------4-5-|



|-0000-6-6--0000------0000-6-6--0000-----|



|----------------------------------|



|----------------------------------|



|----------------------------------|



|-7-777-777-7711\--7-777-777-7711\-|



|-7-777-777-7711\--7-777-777-7711\-|



|-5-555-555-559 \--5-555-555-559 \-|



|------------------------------------|



|------------------------------------|



|------------------------------------|



|-7-777-777-7711--11-10---10-9---9-8-|



|-7-777-777-7711--11-10---10-9---9-8-|



|-5-555-555-559---9--8----8--7---7-6-



|-------------------------------------|



|-------------------------------------|



|-------------------------------------|



|-------------------------------------|



|---------------------------------------------------------------|



|---------------------------------------------------------------|



|---------------------------------------------------------------|



|---------------------------------------------------------------|



|-3s4s3---3s4s3---3s4s3---2------3s4s3---3s4s3---3s4s3---5------|



|-1s2s1-0-1s2s1-0-1s2s1-0-0--0-0-1s2s1-0-1s2s1-0-1s2s1-0-3--0-0-|





        [M]        [M]        [M]     [M]  [M]     [M] [M] [M] [M] [M] 


Riff 6 - Played under solo





                                                                                      


|-------------------------------------|
|-------------------------------------|
|-------------------------------------|





|-44444444-44444444-55555555-77777777-|


|-22222222-22222222-33333333-55555555-|


                                                                                      


|-------------------------------------|



Important: The song above is NOT stored on the Chordie server. The original song is hosted at www.guitaretab.com. Chordie works as a search engine and provides on-the-fly formatting. Chordie does not index songs against artists'/composers' will. To remove this song please click here.

This song is displayed as text-only. Transposing and tuning is only available for chordpro-songs.

Login - add to songbook

Rating click stars to rate

Layout
Accuracy

SHARE PAGE  




You need to log in to post comments