Guitar Tabs, Chords and Lyrics


They Look Like Stong Hands  Bayside

e:-----------------|-------------|--------------------|-------------|


H:-----------------|-------------|--------------------|-------------|


G:-----------6/7-6-|-7-6-4-------|--------------------|-------------|

D:-----4---4-------|-------7-5-4-|--------------------|-4-5-4---4---|
A:---5---5---------|-------------|---5-7-7^8-7-5---7-5|-------7---5-|
E:-7---------------|-------------|-7------------------|-------------|
e:-----------------|-------------|--------------------|-------|
H:-----------------|-------------|--------------------|-------|
G:-----------6/7-6-|-7-6-4-------|--------------------|-------|
D:-----4---4-------|-------7-5-4-|--------------------|-4-5---|
A:---5---5---------|-------------|---5-7-7^8-7-5---7-5|-------|
E:-7---------------|-------------|-7------------------|-------|
e:---------|
H:---------|
G:-6-7-----|
D:-7-9-----|
A:-7-9-----|
E:-5-7-----|
From confi[D]dence to self doubt in 60 [E]seconds.
Storming [G]stages and stereos  [D]
from here to there,
[Bm] trying to prove that I be[D]long.
Trying to [E]win approval[G]  from [D]people that I don't know.


Chorus: Bm:
G Bm Hm e:--6--
And I look so strong H:--6--
D G G:--6--
when the weight of all the world D:--8--
A D A:--8--
don't take it's toll. E:--6--
[G]    And I'd [Bm]choose my [Bm]sides
if I be[E]lieved in what was [G]right,
but [A]I'm all [D]wrong.


[Bm]  I'm not larger than life, I'm not taller than [D]trees.
Do I mean what I say? Is it just this di[E]sease
[G] where I never go [D]home.
[Bm]  Never telling the truth how this life eats a[D]way.
Not admitting I'm fake
and I'm [E]questioning whether this [G]whole thing was worth it
to [D]die poor and all alone?


Chorus:


e:---------------------------------------------|
H:---------------------------------------------|
G:---------------------------------------------|
D:---------------------------------------7^9-7-|    x4 But the fourth time...
A:-------9-9-9----10-9-7---------9-9-9---------|
E:-7-7-7-------7-7------10-7-7-7------10-------|


Don't tell me...
e:-----------------------------------------|
H:-----------------------------------------|
G:-----------------------------------------|
D:---------------------------------------7-|
A:-------9-9-9----10-9-7------9-----7----5-|
E:-7-7-7-------7-7------10-7----7-5---5--5-|


[D]this [C#]does[A]n't [Bm]mean the world, [A]
'cause my [D]ears would bleed
and [F#]my [E]heart [D]would [B]hit [A]the [D]floor.

Chorus:

Slow it down at the end and finish it of with a D


This is how I play this song and I think it sounds right...
at least if you play it alone!

Any questions or coments send them to half-star@hotmail.com

Important: The song above is NOT stored on the Chordie server. The original song is hosted at www.guitaretab.com. Chordie works as a search engine and provides on-the-fly formatting. Chordie does not index songs against artists'/composers' will. To remove this song please click here.

Text color:
Chord color:
Chord grids: 
Font size:    
Page size: 

A B Bm C# D E F# G
variations - click chord images

Login - add to songbook

Transpose chords

Tuning

Rating click stars to rate

Layout
Accuracy

SHARE PAGE  




You need to log in to post comments