Guitar Tabs, Chords and Lyrics


Do You Believe In Magic  Bb Mak

Do you...

Verse 1:

        Do you believe in m[C]agic
        In a yo[F]ung girl's heart
        How the m[C]usic can free her
        Whene[F]ver it starts, and it's m[C]agic
        If the m[F]usic is groovy
        It ma[C]kes you feel happy like an o[F]ld time movie

        I'll t[Dm]ell you 'bout the [Em]magic, and it'll f[F]ree your s[Em]oul
        But it's like t[G]ryin' to tell a stranger 'bout-a rock 'n' roll
Verse 2:

If you believe in magic
Don't bother to choose
If it's jug band music
Or rhythm and blues, just go and listen
It'll start with a smile
That won't wipe off your face, no matter how hard you try

Your feet start tappin' and you can't seem to find
How you got there so just blow your mind

Guitar solo:

        [G] v     v     v     v
	-------------------------|
	-------------------------|
	-------------------------|
	-------------------------|
	-------------0--3--------|
	-------3-----------------|

(...blow your mind)

         [F]v     v     v     v       v     v     v     v
	-------------------------|-------------------------|
	-------------------------|-------------------------|
	-------------------------|-------------------------|
	-0-----------------------|-----0h2-----0-----------|
	----3--------------------|----------------3--------|
	-------------------------|-------------------------|


         [C]v     v     v     v       v     v     v     v
	-------------------------|-------------------------|
	-------------------------|-------------------------|
	-------------------------|-----0-----0-------------|
	-------------------------|-0h2---0h2---0-----------|
	-0-----0--3-----------0--|----------------3--0-----|
	----3--------------------|-------------------------|

^^3^^ ^^3^^

         [F]v     v    [Em] v     v       [F]v     v    [Em] v     v
	-------------------------|-------------------------|
	-------------------------|-------------------------|
	-------------------------|-------------------------|
	-------------------------|0h2-0-----0--------------|
	-3----- ---0h3--------0--|-------3--------3--0-----|
	-------------------------|-------------------------|


         [G]v     v     v     v       v     v     v     v
	-------------------------|-------------------------|
	-----------------------3-|-------------------------|
	-----------------0-2s4---|-2--0-0h2-0------0-----0-|
	-----------0-0h2---------|-------------0h2---0h2---|
	----0--0h2---------------|-------------------------|
	-3-----------------------|-------------------------|

^^3^^ ^^3^^ ^^3^^ ^^3^^ ^^3^^
(If you believe...)

Verse 3:

If you believe in magic
Come along with me
We'll dance until morning
'Til there's just you and me, and maybe
If the music is right
I'll meet you tomorrow, sort of late at night

And we'll go out dancin', baby, then you'll see
How the magic's in the music and the music's in me

Coda:

        Y[F]eah
        Do you believe in m[C]agic,  yeah
F * Em F Em
Believe in the magic of a young girl's soul
F * Em F Em
Believe in the magic of-a rock 'n' roll
F * Em F Em G7
Believe in the magic that can set you free, ah...

* guitar plays F; vocal harmonies imply F6 or Dm

        Talkin' 'bout ma[F]gic
(do you believe like I believe)
        Do you believe in m[C]agic
(do you believe like I believe)
        Do you believe, bel[F]ieve
(do you believe like I believe)
        Do you believe in m[C]agic
(do you believe like I believe)

Important: The song above is NOT stored on the Chordie server. The original song is hosted at www.guitaretab.com. Chordie works as a search engine and provides on-the-fly formatting. Chordie does not index songs against artists/composers will. To remove this song please click here.

Text color:
Chord color:
Chord grids: 
Font size:    
Page size: 

C Dm Em F G
variations - click chord images

Login - add to songbook

Transpose chords

Tuning

Rating click stars to rate

Layout
Accuracy

SHARE PAGE  




You need to log in to post comments