Out Of Reach

Bb Mak

E------3-----5-3--|-2-3-2-3-2-3---------------|

B-3-3---3-3-------|---------------------------|
G-----------------|---------------------------|
D-----------------|---------------------------|
A-----------------|---------------------------|
e-----------------|---------------------------|

 Cadd9G
 “Everyday just seems so long, every minute that I'm here without you.”
 Cadd9G
 “Will tomorrow ever come, will I ever get the chance to feel you?”

Prechorus
 EmA2
“Cos I need you so much.”

Chorus
 Cadd9G
“You're out of reach, you're out of reach but you're so close.”
 EmCadd9DsusG
 “I hear you call, I feel you fall, but you're out of reach.”

Verse 2
*Palm mute this part of the second verse using the power chords on electric guitar.

 Cadd9G
 “Cos I don't want to fake it, I'm just trying to make it yeah.”

Chorus 2
 EmCadd9Em
 “I hear you call, I feel you fall, but you're out of reach.”

Bridge
Acoustic
 EmCadd9EmCadd9
Electric 1
E----------------5b~----------------5b~-----------------|
B-------------------------------------------------------|
G-------------------------------------------------------|
D-------------------------------------------------------|
A--------3----------------------3-----------------------|
e--0----------------------0-----------------------------|


Electric 2- hidden
E--2--3---0---5b~--------7--5b~-------------------------|
B---------------------7-8-------------------------------|
G-------------------------------------------------------|
D-------------------------------------------------------|
A-------------------------------------------------------|
e-------------------------------------------------------|


Breakdown
Electric 1 Palm muted gradually from heavy to light
 EmA2
 “I need you so much!”

Chorus 3
*There are some parts where these parts are obvious in the last chorus

Acoustic
 Cadd9DEm
“Youre' out of reach but you're so close, oh out of reach but you're so close.”

Electric 1
 DEmB
E-----------------|-----------------------------------------|
B-----------------|-----------------------------------------|
G--7----9----4----|---5------------------7-----------9------|
D--x----x----x----|---5------------------7-----------9------|
A--5----7----2----|---3------------------5-----------7------|
e-----------------|-----------------------------------------|

“You're out…so close, oh out of reach…”
Electric 2 repeated over and over
E---------------------------------------|
B-0-1-3--0--1--3--0--1--3---------------|
G---------------------------------------|
D---------------------------------------|
A---------------------------------------|
e---------------------------------------|


End on G


A2 B Cadd9 D Dsus Em G
variations - click chord images
Transpose chords:
Tuning:
Cool service:
View: Size:
A  A  A
Rating:
Layout:
  • Currently 2.7/5 Stars.
  • 1
  • 2
  • 3
  • 4
  • 5
 
Accuracy:
  • Currently 3.5/5 Stars.
  • 1
  • 2
  • 3
  • 4
  • 5
 
click stars to rate
Chordie recommends:
Learn how to play guitar at JamPlay.com
Songbook:
Login to add this song to your songbook
Support the artist
Preview/buy this song
MSN Music
Why this non-profit ad?

 
login to add comments/video/corrections