Babys In Black

Beatles

e|------------------------------|

B|------------------------------|
G|--------6---4^---2------------|
D|-----------------------4---2--|
A|------------------------------|
E|------------------------------|

 AEDA7F#mB7
e|--------------|--------0--------|--------2-------|-------3-------|-------2--------|----------2---|
B|-------2-----|--------0--------|--------3-------|-------2-------|-------2--------|----------4----|
G|-------2-----|--------1--------|--------2-------|-------2-------|-------2--------|----------2----|
D|-------2-----|--------2--------|--------0-------|-------2-------|-------4--------|----------4----|
A|-------0-----|--------2--------|---------------- |-------0-------|-------4--------|----------2---|
E|--------------|--------0--------|---------------- |---------------|-------2--------|----------2--|


That's it for the chords in the song. If you want to learn the Beatles, it is probably
to memorize these chords because the Beatles use a lot of tricky chords like these in
of their songs. Now for the lyrics and when the notes are strummed.

(Intro)
 AE
Oh, dear what can I do?
 D
Baby's in black and
 E
I'm feeling blue
 AEA
Tell me Oh, what can I do?       
 A
 She thinks of him
 A7D
And so she dresses in black,
 A
And though he'll never come back    
 EA
She's dressed in black.
 AE
 Oh, dear what can I do?
 D
Baby's in black and
 E
I'm feeling blue
 AEA
Tell me Oh, what can I do?       
 A
 I think of her
 A7D
But she thinks only of him 
 A
And though it's only a whim  
 EA
 She thinks of him

 F#mB7DE
 Oh, how long will it take till she sees 
 A
The mistake she has made 
 E
Dear what can I do?
 D
Baby's in black and
 E
I'm feeling blue
 ADA
Tell me Oh, what can I do?      
Solo

 e|----------------------------------------------------------------------------------------9---7--|
B|---------------------------------------------------------7---5-------- 5---3---3/5---5---5------|
G|--------6----4^----2---------------4^----2------------6---6--------4---4------------------------|
D|--------------------------4----2----------------4/6------------2/4------------------------------|
A|------------------------------------------------------------------------------------------------|
E|------------------------------------------------------------------------------------------------|
e|-----------------------------|
B|-----------------------------|
G|--------4^---4---2--------2--|
D|-----------------------4-----|
A|-----------------------------|
E|-----------------------------|


 F#mB7DE
 Oh, how long will it take till she sees 
 A
The mistake she has made 
 E
Dear what can I do?
 D
Baby's in black and
 E
I'm feeling blue
 ADA
Tell me Oh, what can I do?      
 A
 She thinks of him
 D
And so she dresses in black,
 E
And though he'll never come back    
 A
She's dressed in black.
 AE
 Oh, dear what can I do?
 D
Baby's in black and
 E
I'm feeling blue
 AEA
Tell me Oh, what can I do?       

(on the last “do”, start ?, except end with an A chord.)

 A
e|-------------------------------|
B|----------------------------2--|
G|--------6---4^---2--------2----|
D|-----------------------4---2---|
A|---------------------------0---|
E|-------------------------------|


If you think anything is wrong, then contact me at skatefool05@gmail.com. Gracias.


A A7 B7 D E F#m
variations - click chord images
Transpose chords:
Tuning:
Cool service:
View: Size:
A  A  A
Rating:
Layout:
  • Currently 2.8/5 Stars.
  • 1
  • 2
  • 3
  • 4
  • 5
 
Accuracy:
  • Currently 2.9/5 Stars.
  • 1
  • 2
  • 3
  • 4
  • 5
 
click stars to rate
Chordie recommends:
Check out JamPlay.com for online video guitar lessons
Songbook:
Login to add this song to your songbook
Support the artist
Preview/buy this song
MSN Music
Why this non-profit ad?

 
login to add comments/video/corrections