Guitar Tabs, Chords and Lyrics


Got To Get You Into My Life   Beatles



it goes really fast so it would be better to learn it in phrases             

|-----------------|-11-------------|-11-------------|------------------|-12-|
|---12-12---------|---14-12--------|---14-12--------|------------------|-12-|
|---------13-11---|--------13-11---|--------13-11---|------------------|-11-|
|--------------13-|-------------13-|-------------13-|------------------|-10-|
|-13--------------|----------------|----------------|-13-11-9-9-9-9----|-11-|
|-----------------|----------------|----------------|---------------11-|----|


Guitar Intro
0:05          0:09                    0:17
|------7-----|-----------------------|-12---------------------------|
|--7/9---9~~-|-----------------------|-12---------------------------|
|------------|--4b5-4b5-4b5-4b5r4~~~-|-11---------------------------|
|------------|-----------------------|-10---------------------------|
|------------|-----------------------|-11---------------------------|
|------------|-----------------------|------------------------------|


Fills Used Throughout the Song

FILL 1            FILL 2                FILL 3
0:20             0:27                  0:34
|----7---7--7b--|-----7---7---9b11r9--|------7---7------------------|
|-6-9--9---9----|-6-9---9---9---------|--6-9---9---9-------9-11-----|
|---------------|---------------------|---------------8\10----------|
|---------------|---------------------|-----------------------------|
|---------------|---------------------|-----------------------------|
|---------------|---------------------|-----------------------------|
TRUMPET INTRO AGAIN


0:58
|-------------------------------------|
|--------------7---7--/10-8-----------|
|----------7-9---9----------9-7-9-----|
|------7-9------------------------9-7-|
|-7-10--------------------------------|x2
|-------------------------------------|

THESE RIFFS I HAVE TABBED ARE CONTINUOSLY USED THROUGHOUT THE SONG


GUITAR SOLO
2:37                                                      2:41
|----------------------------------------------|---------------------|
|-15b17-15b17-15b17-15b17-15b17-15b17-15b17-15-|-12h15p12------------|
|----------------------------------------------|---------14p12--12---|
|----------------------------------------------|--------------14--14-|
|----------------------------------------------|---------------------|
|----------------------------------------------|---------------------|

|-------------------------------------------|
|-------------------------------------------|
|-12-14b16----------------------------------|
|-------------------------------------------|
|-------------------------------------------|
|-------------------------------------------|

2:44
|------------------|------------------|-----------------------|------------|
|------------------|------------------|-----------------------|------------|
|------12-14b16r14-|------12-14b16r14-|------12-14b16-14b16r14|12h14p12----|
|-12h14------------|-12h14------------|-12h14-----------------|---------14-|
|------------------|------------------|-----------------------|------------|
|------------------|------------------|-----------------------|------------|
2:47
|-12--------------------15--15-17-17b19-----------------------|
|---12--/17-15--15-16-17--17----------------------------------|
|-------------16----------------------------------------------|
|-------------------------------------------------------------|
|-------------------------------------------------------------|
|-------------------------------------------------------------|

WEll THATS THE MAIN PARTS


Important: The song above is NOT stored on the Chordie server. The original song is hosted at www.guitaretab.com. Chordie works as a search engine and provides on-the-fly formatting. Chordie does not index songs against artists/composers will. To remove this song please click here.

This song is displayed as text-only. Transposing and tuning is only available for chordpro-songs.

Login - add to songbook

Rating click stars to rate

Layout
Accuracy

SHARE PAGE  




You need to log in to post comments