eToCache5 = ""; ?> Here There Everywhere by Beatles - guitar chords, guitar tabs and lyrics - chordie

Here There Everywhere

Beatles

 GAmBmCGAm
 Here,    making each day of the year     

 BmCF#m7B7
 Changing my life with a wave of her hand

 F#m7B7EmAmAm7*
                                
Nobody can deny that there's something there

Verse 2:
 GAmBmCGAm
 There,     running my hands through her hair 

 BmCF#m7B7
 Both of us thinking how good it can be

 F#m7B7EmAmAm7*D7
                                         
Someone is speaking but she doesn't know he's there


Chorus1:
 F7BbGmCm
 I want her everywhere      and if she's beside me

 D7Gm
 I know I need never care

 CmD7
 But to love her is to need her...

Solo:
e|---------------------------------------------------------------------------|

B|---------------------------8-----------------------------------------------|
G|----7-8-9-10-9-8-7----8-10---8-6-6-7-8-7-----------------------------------|
D|---------------------------------------------------------------------------|
A|---------------------------------------------------------------------------|
E|---------------------------------------------------------------------------|

Verse 3:
 GAmBmCGAm
 Everywhere,    knowing that love is to share 

 BmCF#m7B7
 Each one believing that love never dies

 F#m7B7EmAmAm7*D7
                                    
Watching her eyes and hoping I'm always there

Chorus 2:
 F7BbGmCm
 I want her everywhere      and if she's beside me

 D7Gm
 I know I need never care

 CmD7
 But to love her is to need her...

Solo:
e|---------------------------------------------------------------------------|

B|---------------------------8-----------------------------------------------|
G|----7-8-9-10-9-8-7----8-10---8-6-6-7-8-7-----------------------------------|
D|---------------------------------------------------------------------------|
A|---------------------------------------------------------------------------|
E|---------------------------------------------------------------------------|

Verse 4:
 GAmBmCGAm
 Everywhere,    knowing that love is to share 

 BmCF#m7B7
 Each one believing that love never dies

F#m7 B7 Em Am Am7* D7
Watching her eyes and hoping I'm always there

Coda:
 GAm
I will be there
 BmC
and everywhere
 GAmBmCG
 Here, there and everywhere      

Am7* = e - 3
 B-1
         0
 D-2
         0
E - x
the solo is correct as far as i can hear. if you have any corrections just leave a comment.
tabbed by schmojay

Corrected by milbert. View original
Am B B7 Bb Bm C Cm D D7 Em F#m7 F7 G Gm
variations - click chord images
Transpose chords:
Tuning:
Cool service:
View: Size:
A  A  A
Rating:
Layout:
  • Currently 3.2/5 Stars.
  • 1
  • 2
  • 3
  • 4
  • 5
 
Accuracy:
  • Currently 2.8/5 Stars.
  • 1
  • 2
  • 3
  • 4
  • 5
 
click stars to rate
Chordie recommends:
Learn to play songs at Jamplay.com with video guitar lessons
Songbook:
Login to add this song to your songbook
Support the artist
Preview/buy this song
MSN Music
Why this non-profit ad?

 
login to add comments/video/corrections