""; ?> by Unknown - guitar chords, guitar tabs and lyrics - chordie
--------------------------------------------------------------------

--------------------------------------------------------------------

Intro

 AA7sus4AA7sus4AA7sus4

 A
 I want to tell you
 BE7-9
My head is filled with things to say     

When you're here
 A
All those words, they seem to slip away

 A
 When I get near you,
 BE7-9
The games begin to drag me down    

It's all right
 A
I'll make you maybe next time around

Middle eight

Bm Bmflat5 A
But if I seem to act unkind
B Bm Bmflat5
It's only me, it's not my mind
 A
That is confusing things.

 A
 I want to tell you
 BE7-9
I feel hung up but I don't know why,   

I don't mind
 A
I could wait forever, I've got time

Middle eight

Bm Bmflat5 A
Sometimes I wish I knew you well,
B Bm Bmflat5
Then I could speak my mind and tell you
 A
Maybe you'd understand

 A
 I want to tell you
 BE7-9
I feel hung up but I don't know why,  

I don't mind
 A
I could wait forever, I've got time, I've got time, I've got time

Intro

Fade in.....................

e|------ ------ ------ ------|
B|---------------------------|
G|0--------------------------|
D|----0---------4---0--------|
A|---------0---------------0-|
E|---------------------------|

..............................
e|------ ------ ------ ------|------ ------ ------ ------|
B|---------------------------|---------------------------|
G|----2--0-------------------|0--------------------------|
D|--------------2------------|----0---------4---0--------|
A|0----------0-------------0-|---------0---------------0-|
E|---------------------------|---------------------------|

 A
e|------ ------ ------ ------|------ ------ ------ ----5-|
B|---------------------------|-------------------------5-|
G|---------------------------|-------------------------6-|
D|---------------------------|-------------------------7-|
A|---------------------------|-------------------------7-|
E|---------------------------|-------------------------5-|
e|------ ------ ------ ------|------ ------ ------ ------|
B|---------------------------|---------------------------|
G|----2--0-------------------|0--------------------------|
D|--------------2------------|----0---------4---0--------|
A|0----------0-------------0-|---------0---------------0-|
E|---------------------------|---------------------------|

 A7sus4A
e|------ ------ ------ ------|5----- ------ ------ ----5-|
B|---------------------------|5------------------------5-|
G|---------------------------|7------------------------6-|
D|---------------------------|5------------------------7-|
A|---------------------------|7------------------------7-|
E|---------------------------|5------------------------5-|
e|------ ------ ------ ------|------ ------ ------ ------|
B|---------------------------|---------------------------|
G|----2--0-------------------|0--------------------------|
D|--------------2------------|----0---------4---0--------|
A|0----------0-------------0-|---------0---------------0-|
E|---------------------------|---------------------------|

 A7sus4A
e|------ ------ ------ ------|5----- ------ ------ ----5-|
B|---------------------------|5------------------------5-|
G|---------------------------|7------------------------6-|
D|---------------------------|5------------------------7-|
A|---------------------------|7------------------------7-|
E|---------------------------|5------------------------5-|


Verses 1 & 2

 A
e|------ ------ ------ ------|------ ------ ------ ------|
B|2------2------2------2-----|2------2------2------2-----|
G|2------2------2------2-----|2------2------2------2-----|
D|2------2------2------2-----|2------2------2------2-----|
A|0------0------0------0-----|0------0------0------0-----|
E|-------------------------0-|------------0------------0-|


 B
e|------ ------ ------ ------|------ ------|------ ------ ------ ------|
B|2------2------2----- 2-----|2------2-----|4------4------4------4-----|
G|2------2------2------2-----|2------2-----|4------4------4------4-----|
D|2------2------2------2-----|2------2-----|4------4------4------4-----|
A|0------0------0------0-----|0------0-----|2------2------2------2-----|
E|------------0------------0-|-----------0-|---------------------------|


 E7-9
e|------ ------|1---0- 1---0- 1---0- 1---0-|1---0- 1---0- 1---0- 1---0-|
B|4------4-----|0------0------0------0-----|0------0------0------0-----|
G|4------8-----|1------1------1------1-----|1------1------1------1-----|
D|4------4-----|0------0------0------0-----|0------0------0------0-----|
A|2------2-----|---------------------------|---------------------------|
E|-------------|0------0------0------0-----|0------0------0------0-----|
e|1---0- 1---0- 1---0- 1---0-|1---0- 1---0- 1---0- 1---0-|
B|0------0------0------0-----|0------0------0------0-----|
G|1------1------1------1-----|1------1------1------1-----|
D|0------0------0------0-----|0------0------0------0-----|
A|---------------------------|---------------------------|
E|0------0------0------0-----|0------0------0------0-----|


 A
e|------ ------ ------ ------|------ ------ ------ ------|
B|---------------------------|---------------------------|
G|----2--0-------------------|0--------------------------|
D|--------------2------------|----0---------4---0--------|
A|0----------0-------------0-|---------0---------------0-|
E|---------------------------|---------------------------| 


Middle eight

Bm Bmflat5
e|------ ------ ------ ------|------ ------ ------ ------|
B|3------3------3------3-----|3------3------3------3-----|
G|4------4------4------4-----|4------4------4------4-----|
D|4------4------4------4-----|3------3------3------3-----|
A|2------2------2------2-----|2------2------2------2-----|
E|---------------------------|---------------------------|


 AB
e|------ ------ ------ ------|------ ------ ------ ------|
B|2------2------2------2-----|4------4------4------4-----|
G|2------2------2------2-----|4------4------4------4-----|
D|2------2------2------2-----|4------4------4------4-----|
A|0--------------------0---0-|2------2------2------2-----|
E|-------2------0--------0---|-------------------------2-|


Bm Bmflat5
e|------ ------ ------ ------|------ ------ ------ ------|
B|3------3------3------3-----|3------3------3------3-----|
G|4------4------4------4-----|4------4------4------4-----|
D|4------4------4------4-----|3------3------3------3-----|
A|2------2------2------2-----|2------2------2------2-----|
E|-------------------------2-|---------------------------|


 AA7sus4
e|0----- ---0-- ------ ------|5-5-5- 5-5-5- 5-5-5- 5-5-5-|
B|2---------3----------------|---------------------------|
G|2---------0----------------|---------------------------|
D|2---------2----------------|---------------------------|
A|0--------------------------|---------------------------|
E|---------------------------|---------------------------|


Verse 3

 A
e|------ ------ ------ ------|------ ------ ------ ------|
B|2------2------2------2-----|2------2------2------2-----|
G|2------2------2------2-----|2------2------2------2-----|
D|2------2------2------2-----|2------2------2------2-----|
A|0------0------0------0-----|0------0------0------0-----|
E|-------------------------0-|------------0------------0-|


 B
e|------ ------ ------ ------|------ ------|------ ------ ------ ------|
B|2------2------2----- 2-----|2------2-----|4------4------4------4-----|
G|2------2------2------2-----|2------2-----|4------4------4------4-----|
D|2------2------2------2-----|2------2-----|4------4------4------4-----|
A|0------0------0------0-----|0------0-----|2------2------2------2-----|
E|------------0------------0-|-----------0-|---------------------------|


 E7-9
e|------ ------|1---0- 1---0- 1---0- 1---0-|1---0- 1---0- 1---0- 1---0-|
B|4------4-----|0------0------0------0-----|0------0------0------0-----|
G|4------4-----|1------1------1------1-----|1------1------1------1-----|
D|4------4-----|0------0------0------0-----|0------0------0------0-----|
A|2------2-----|---------------------------|---------------------------|
E|---------2-1-|0------0------0------0-----|0------0------0------0-----|
e|1---0- 1---0- 1---0- 1---0-|1---0- 1---0- 1---0- 1---0-|
B|0------0------0------0-----|0------0------0------0-----|
G|1------1------1------1-----|1------1------1------1-----|
D|0------0------0------0-----|0------0------0------0-----|
A|---------------------------|---------------------------|
E|0------0------0------0-----|0------0------0------0-----|


 A
e|------ ------ ------ ------|------ ------ ------ ------|
B|---------------------------|---------------------------|
G|----2--0-------------------|0--------------------------|
D|--------------2------------|----0---------4---0--------|
A|0----------0-------------0-|---------0---------------0-|
E|---------------------------|---------------------------| 


Middle eight

Bm Bmflat5
e|------ ------ ------ ------|------ ------ ------ ------|
B|3------3------3------3-----|3------3------3------3-----|
G|4------4------4------4-----|4------4------4------4-----|
D|4------4------4------4-----|3------3------3------3-----|
A|2------2------2------2-----|2------2------2------2-----|
E|---------------------------|---------------------------|


 AB
e|------ ------ ------ ------|------ ------ ------ ------|
B|2------2------2------2-----|4------4------4------4-----|
G|2------2------2------2-----|4------4------4------4-----|
D|2------2------2------2-----|4------4------4------4-----|
A|0--------------------0---0-|2------2------2------2-----|
E|-------2------0--------0---|-------------------------2-|


Bm Bmflat5
e|------ ------ ------ ------|------ ------ ------ ------|
B|3------3------3------3-----|3------3------3------3-----|
G|4------4------4------4-----|4------4------4------4-----|
D|4------4------4------4-----|3------3------3------3-----|
A|2------2------2------2-----|2------2------2------2-----|
E|-------------------------2-|---------------------------|


 AA7sus4
e|0----- ---0-- ------ ------|5-5-5- 5-5-5- 5-5-5- 5-5-5-|
B|2---------3----------------|---------------------------|
G|2---------0----------------|---------------------------|
D|2---------2----------------|---------------------------|
A|0--------------------------|---------------------------|
E|---------------------------|---------------------------|


Verse 4

 A
e|------ ------ ------ ------|------ ------ ------ ------|
B|2------2------2------2-----|2------2------2------2-----|
G|2------2------2------2-----|2------2------2------2-----|
D|2------2------2------2-----|2------2------2------2-----|
A|0------0------0------0-----|0------0------0------0-----|
E|-------------------------0-|------------0------------0-|


 B
e|------ ------ ------ ------|------ ------|------ ------ ------ ------|
B|2------2------2----- 2-----|2------2-----|4------4------4------4-----|
G|2------2------2------2-----|2------2-----|4------4------4------4-----|
D|2------2------2------2-----|2------2-----|4------4------4------4-----|
A|0------0------0------0-----|0------0-----|2------2------2------2-----|
E|------------0------------0-|-----------0-|---------------------------|


 E7-9
e|------ ------|1---0- 1---0- 1---0- 1---0-|1---0- 1---0- 1---0- 1---0-|
B|4------4-----|0------0------0------0-----|0------0------0------0-----|
G|4------4-----|1------1------1------1-----|1------1------1------1-----|
D|4------4-----|0------0------0------0-----|0------0------0------0-----|
A|2------2-----|---------------------------|---------------------------|
E|---------2-1-|0------0------0------0-----|0------0------0------0-----|
e|1---0- 1---0- 1---0- 1---0-|1---0- 1---0- 1---0- 1---0-|
B|0------0------0------0-----|0------0------0------0-----|
G|1------1------1------1-----|1------1------1------1-----|
D|0------0------0------0-----|0------0------0------0-----|
A|---------------------------|---------------------------|
E|0------0------0------0-----|0------0------0------0-----|


 A
e|------ ------ ------ ------|------ ------ ------ ------|
B|---------------------------|---------------------------|
G|----2--0-------------------|0--------------------------|
D|--------------2------------|----0---------4---0--------|
A|0----------0-------------0-|---------0---------------0-|
E|---------------------------|---------------------------| 


Ending

 A
e|------ ------ ------ ------|------ ------ ------ ------|
B|---------------------------|---------------------------|
G|----2--0-------------------|0--------------------------|
D|--------------2------------|----0---------4---0--------|
A|0----------0-------------0-|---------0---------------0-|
E|---------------------------|---------------------------|
e|------ ------ ------ ------|------ ------ ------ ------|
B|---------------------------|---------------------------|
G|----2--0-------------------|0--------------------------|
D|--------------2------------|----0---------4---0--------|
A|0----------0-------------0-|---------0---------------0-|
E|---------------------------|---------------------------|
e|------ ------ ------ ------|------ ------ ------ ------|
B|---------------------------|---------------------------|
G|----2--0-------------------|0--------------------------|
D|--------------2------------|----0---------4---0--------|
A|0----------0-------------0-|---------0---------------0-|
E|---------------------------|---------------------------|
e|------ ------ ------ ------|------ ------ ------ ------|
B|---------------------------|---------------------------|
G|----2--0-------------------|0--------------------------|
D|--------------2------------|----0---------4---0--------|
A|0----------0-------------0-|---------0---------------0-|
E|---------------------------|---------------------------| 


Fade out...............................................
B Bend
R Release
/ slide up
\ slide down
H hammer-on
P pull-off
~ vibrato
+ harmonic
x Mute note
. - play note like a dot in standard notation
^ - ties two notes together


A A7sus4 B E7-9
variations - click chord images
Transpose chords:
Tuning:
Cool service:
View: Size:
A  A  A
Rating:
Layout:
  • Currently 2.5/5 Stars.
  • 1
  • 2
  • 3
  • 4
  • 5
 
Accuracy:
  • Currently 2.3/5 Stars.
  • 1
  • 2
  • 3
  • 4
  • 5
 
click stars to rate
Chordie recommends:
Check out JamPlay.com for online video guitar lessons
Songbook:
Login to add this song to your songbook
Support the artist
Preview/buy this song
MSN Music
Why this non-profit ad?

 
login to add comments/video/corrections