eToCache5 = ""; ?> by Unknown - guitar chords, guitar tabs and lyrics - chordie
    -------------------------------------------------------------


THE BEATLES - MAGGIE MAE (Lennon & McCartney) From LET IT BE
album. Released 8 May 1970.

    -------------------------------------------------------------


Tabbed by:PJVillanueva

John plays his J-100 on the right, Paul his Martin D-28 on
the left, George plays bass on his Telecaster & Ringo plays
drums, both center.

Oh dirty Maggie Mae they have taken her away
And she never walk down Lime Street any more
Oh the judge he guilty found her
For robbing a homeward bounder
That dirty no good robbin' Maggie Mae
'tis the port of Liverpool
They returned me to
Two pounds ten a week, that was my pay

12/8

 G
  e|3------ ------- ------- -------|------- ------- ------- -------|
  B|3------------------------------|-------------------------------|
  G|0------------------------------|-------------------------------|
  D|0------------------------------|-------------------------------|
  A|2------------------------------|-------------------------------|
  E|3------------------------------|-------------------------------|

Ooooooooooooooooooohhhh

 C
  e|3------ 3------ 3------ 3-----3|3------ 3-----3 3------ 3-----3|
  B|1-------1-------1-------1-----1|1-------1-----1-1-------1-----1|
  G|0-------0-------0-------0-----0|0-------0-----0-0-------0-----0|
  D|2-------2-------2-------2-----2|2-------2-----2-2-------2-----2|
  A|3-------3-------3-------3-----3|3-------3-----3-3-------3-----3|
  E|-------------------------------|-------------------------------|

dirty Maggie Mae they
have
  e|3------ 3------ 3------ 3------|3------ 3-----3 3------ 3------|
  B|1-------1-------1-------1------|1-------1-----1-1-------1------|
  G|0-------0-------0-------0------|0-------0-----0-0-------0------|
  D|2-------2-------2-------2------|2-------2-----2-2-------2------|
  A|3-------3-------3-------3------|3-------3-----3-3-------3------|
  E|-------------------------------|-------------------------------|
  e|------- ------- ------- -------|------- ------- ------- -------|
  B|-------------------------------|-------------------------------|
  G|-------------------------------|-------------------------------|
  D|-------------------------------|--------5----------------------|
  A|--------3-------3-------3------|5/7-------------7\5-----3------|
  E|-------------------------------|-------------------------------|


 G
  e|3------ 3-----3 3------ 3------|3------ 3-----3 3------ 3------|
  B|3-------3-----3-3-------3------|3-------3-----3-3-------3------|
  G|0-------0-----0-0-------0------|0-------0-----0-0-------0------|
  D|0-------0-----0-0-------0------|0-------0-----0-0-------0------|
  A|2-------2-----2-2-------2------|2-------2-----2-2-------2------|
  E|3-------3-----3-3-------3------|3-------3-----3-3-------3------|

taken her away And she
  e|3------ 3------ 3------ 3------|3------ 3-----3 3-----3 3------|
  B|3-------3-------3-------3------|3-------3-----3-3-----3-3------|
  G|0-------0-------0-------0------|0-------0-----0-0-----0-0------|
  D|0-------0-------0-------0------|0-------0-----0-0-----0-0------|
  A|2-------2-------2-------2------|2-------2-----2-2-----2-2------|
  E|3-------3-------3-------3------|3-------3-----3-3-----3-3------|
  e|------- ------- ------- -------|------- ------- ------- -------|
  B|-------------------------------|-------------------------------|
  G|-------------------------------|-------------------------------|
  D|-------------------------------|-------------------------------|
  A|------------------------------5|7P5-----7-------5--------------|
  E|3---------------5/7------------|------------------------7------|
  e|3------ 3------ 3------ 3------|3------ 3-----3 3------ 3------|
  B|3-------3-------3-------3------|3-------3-----3-3-------3------|
  G|0-------0-------0-------0------|0-------0-----0-0-------0------|
  D|0-------0-------0-------0------|0-------0-----0-0-------0------|
  A|2-------2-------2-------2------|2-------2-----2-2-------2------|
  E|3-------3-------3-------3------|3-------3-----3-3-------3------|

never walk down Lime Street any more
  e|3------ 3------ 3------ 3------|3------ 3------ 3------ 3------|
  B|3-------3-------3-------3------|3-------3-------3-------3------|
  G|0-------0-------0-------0------|0-------0-------0-------0------|
  D|0-------0-------0-------0------|0-------0-------0-------0------|
  A|2-------2-------2-------2------|2-------2-------2-------2------|
  E|3-------3-------3-------3------|3-------3-------3-------3------|
  e|------- ------- ------- -------|------- ------- ------- -------|
  B|-------------------------------|-------------------------------|
  G|-------------------------------|-------------------------------|
  D|-------------------------------|-------------------------------|
  A|-------------------------------|5-----------------------5------|
  E|3---------------5/7------------|-------------------------------|


 D
  e|2-----2 2------ 2------ 2------|2------ 2------ ------2 2------|
  B|3-----3-3-------3-------3------|3-------3-------------3-3------|
  G|2-----2-2-------2-------2------|2-------2-------------2-2------|
  D|0-----0-0-------0-------0------|0-------0-------------0-0------|
  A|-------------------------------|-------------------------------|
  E|-------------------------------|-------------------------------|

work Ooooooohh the
  e|2------ 2------ 2------ 2------|2------ 2-----2 2------ 3------|
  B|3-------3-------3-------3------|3-------3-----3-3-------3------|
  G|2-------2-------2-------2------|2-------2-----2-2-------0------|
  D|0-------0-------0-------0------|0-------0-----0-0-------0------|
  A|-------------------------------|------------------------2------|
  E|-------------------------------|------------------------3------|
  e|------- ------- ------- -------|------- ------- ------- -------|
  B|-------------------------------|-------------------------------|
  G|-------------------------------|-------------------------------|
  D|-------------------------------|-------------------------------|
  A|5---------------7/9------------|------5------------------------|
  E|-------------------------------|--------7---------------5------|


 G
  e|3------ 3------ 3------ 3-----3|3------ 3-----3 3-----3 3------|
  B|3-------3-------3-------3-----3|3-------3-----3-3-----3-3------|
  G|0-------0-------0-------0-----0|0-------0-----0-0-----0-0------|
  D|0-------0-------0-------0-----0|0-------0-----0-0-----0-0------|
  A|2-------2-------2-------2-----2|2-------2-----2-2-----2-2------|
  E|3-------3-------3-------3-----3|3-------3-----3-3-----3-3------|

judge she guilty found her for
  e|3------ 3------ 3------ 3------|3------ 3------ 3-----3 3----3-|
  B|3-------3-------3-------3------|3-------3-------3-----3-3----3-|
  G|0-------0-------0-------0------|0-------0-------0-----0-0----0-|
  D|0-------0-------0-------0------|0-------0-------0-----0-0----0-|
  A|2-------2-------2-------2------|2-------2-------2-----2-2----2-|
  E|3-------3-------3-------3------|3-------3-------3-----3-3----3-|
  e|------- ------- ------- -------|------- ------- ------- -------|
  B|-------------------------------|-------------------------------|
  G|-------------------------------|-------------------------------|
  D|-------------------------------|-------------------------------|
  A|----------------5/7------------|------------------------5------|
  E|3-------3----------------------|--------7----------------------|


 C
  e|3------ 3-----3 3------ 3-----3|3------ 3-----3 3-----3 3-----3|
  B|1-------1-----1-1-------1-----1|1-------1-----1-1-----1-1-----1|
  G|0-------0-----0-0-------0-----0|0-------0-----0-0-----0-0-----0|
  D|2-------2-----2-2-------2-----2|2-------2-----2-2-----2-2-----2|
  A|3-------3-----3-3-------3-----3|3-------3-----3-3-----3-3-----3|
  E|-------------------------------|-------------------------------|

robbing a homeward bounder That
  e|3------ 3------ 3------ 3------|3------ 3------ 3------ 3------|
  B|1-------1-------1-------1------|1-------1-------1-------1------|
  G|0-------0-------0-------0------|0-------0-------0-------0------|
  D|2-------2-------2-------2------|2-------2-------2-------2------|
  A|3-------3-------3-------3------|3-------3-------3-------3------|
  E|-------------------------------|-------------------------------|
  e|------- ------- ------- -------|------- ------- ------- -------|
  B|-------------------------------|-------------------------------|
  G|--------------5---------------5|-------------------------------|
  D|----------------5--------------|--------5----------------------|
  A|3------------------------------|5/7-------------7\5-----3------|
  E|-------------------------------|-------------------------------|


 GD
  e|3------ 3-----3 3------ 3------|2------ 2-----2 2------ 2------|
  B|3-------3-----3-3-------3------|3-------3-----3-3-------3------|
  G|0-------0-----0-0-------0------|2-------2-----2-2-------2------|
  D|0-------0-----0-0-------0------|0-------0-----0-0-------0------|
  A|2-------2-----2-2-------2------|-------------------------------|
  E|3-------3-----3-3-------3------|-------------------------------|

dirty no good robbin' Maggie Mae
  e|2------ 2------ 2------ 2------|2------ 2------ 2------ 2------|
  B|3-------3-------3-------3------|3-------3-------3-------3------|
  G|2-------2-------2-------2------|2-------2-------2-------2------|
  D|-------------------------------|-------------------------------|
  A|-------------------------------|-------------------------------|
  E|-------------------------------|-------------------------------|

 D
  e|------- ------- ------- -------|------- ------- ------- -------|
  B|-------------------------------|-------------------------------|
  G|--------------0----------------|----------------------2--------|
  D|----------------------0H2------|0-------------2/4--------------|
  A|-------------------------------|-------------------------------|
  E|3------------------------------|-------------------------------|


x x X X
 G
  e|3------ 3-----3 3-----3 3------|3------ ------- ------- -------|
  B|3-------3-----3-3-----3-3------|3------------------------------|
  G|0-------0-----0-0-----0-0------|0------------------------------|
  D|0-------0-----0-0-----0-0------|0------------------------------|
  A|2-------2-----2-2-----2-2------|2------------------------------|
  E|3-------3-----3-3-----3-3------|3------------------------------|

'tis
the
  e|3------ 3------ 3-----3 3------|3------ ------- ------- -------|
  B|3-------3-------3-----3-3------|3------------------------------|
  G|0-------0-------0-----0-0------|0------------------------------|
  D|0-------0-------0-----0-0------|0------------------------------|
  A|2-------2-------2-----2-2------|2------------------------------|
  E|3-------3-------3-----3-3------|3------------------------------|
  e|------- ------- ------- -------|------- ------- ------- -------|
  B|-------------------------------|-------------------------------|
  G|-------------------------------|-------------------------------|
  D|-------------------------------|5------------------------------|
  A|------------------------5------|-------------------------------|
  E|3-------------5/7--------------|-------------------------------|


00:26

  e|3------ 3-----3 3------ 3-----3|3-----3 3------ 3------ 3------|
  B|1-------1-----1-1-------1-----1|1-----1-1-------1-------1------|
  G|0-------0-----0-0-------0-----0|0-----0-0-------0-------0------|
  D|2-------2-----2-2-------2-----2|2-----2-2-------2-------2------|
  A|3-------3-----3-3-------3-----3|3-----3-3-------3-------3------|
  E|-------------------------------|-------------------------------|

port of Liverpool they
  e|------- ------- ------- -------|------3 3------ 3------ 3------|
  B|-------------------------------|------1-1-------1-------1------|
  G|-------------------------------|------0-0-------0-------0------|
  D|-------------------------------|------2-2-------2-------2------|
  A|-------------------------------|------3-3-------3-------3------|
  E|-------------------------------|-------------------------------|
  e|------- ------- ------- -------|------- ------- ------- -------|
  B|-------------------------------|-------------------------------|
  G|-------------------------------|-------------------------------|
  D|-------------------------------|-------------------------------|
  A|3------------------------------|5/7----------------------------|
  E|-------------------------------|-------------------------------|
  e|3------ 3------ 3------ 3------|3------ 3-----3 3-----3 3-----3|
  B|3-------3-------3-------3------|3-------3-----3-3-----3-3-----3|
  G|0-------0-------0-------0------|0-------0-----0-0-----0-0-----0|
  D|0-------0-------0-------0------|0-------0-----0-0-----0-0-----0|
  A|2-------2-------2-------2------|2-------2-----2-2-----2-2-----2|
  E|3-------3-------3-------3------|3-------3-----3-3-----3-3-----3|

returned me to
  e|------- 3------ ------3 3------|------3 3------ 3------ 3------|
  B|--------3-------------3-3------|------3-3-------3-------3------|
  G|--------0-------------0-0------|------0-0-------0-------0------|
  D|--------0-------------0-0------|------0-0-------0-------0------|
  A|--------2-------------2-2------|------2-2-------2-------2------|
  E|--------3-------------3-3------|------3-3-------3-------3------|
  e|------- ------- ------- -------|------- ------- ------- -------|
  B|-------------------------------|-------------------------------|
  G|-------------------------------|-------------------------------|
  D|-------------------------------|-------------------------------|
  A|-------------------------------|-------------------------------|
  E|--------3----------------------|5/7----------------------------|
  e|3------ 3------ 3-----3 3------|3------ 3-----3 3------ 3------|
  B|3-------3-------3-----3-3------|1-------1-----1-1-------1------|
  G|0-------0-------0-----0-0------|0-------0-----0-0-------0------|
  D|0-------0-------0-----0-0------|2-------2-----2-2-------2------|
  A|2-------2-------2-----2-2------|3-------3-----3-3-------3------|
  E|3-------3-------3-----3-3------|-------------------------------|

Two pounds ten a week, that was my pay
Ooooooooooooooooooooooooooooooooooooooooooooooooooooooooooooooo
  e|3------ ------- ------- -------|------- ------- ------- -------|
  B|3------------------------------|-------------------------------|
  G|0------------------------------|-------------------------------|
  D|0------------------------------|-------------------------------|
  A|2------------------------------|-------------------------------|
  E|3------------------------------|-------------------------------|
  e|------- ------- ------- -------|------- ------- ------- -------|
  B|-------------------------------|-------------------------------|
  G|-------------------------------|-------------------------------|
  D|-------------------------------|-------------------------------|
  A|-------------------------------|3---------------2--------------|
  E|3------------------------------|-------------------------------|
  e|2------ 2------ ------- 2------|------2 5------ 5------ -------|
  B|3-------3---------------3------|3------------------------------|
  G|2-------2---------------2------|-------------------------------|
  D|0-------0---------------0------|-------------------------------|
  A|-------------------------------|-------------------------------|
  E|-------------------------------|-------------------------------|

ooooooooooohh
  e|------- ------- ------- -------|------- ------- ------- -------|
  B|-------------------------------|-------------------------------|
  G|-------------------------------|-------------------------------|
  D|-------------------------------|-------------------------------|
  A|3/5-----------3-------5/7------|5---------7/9---------7-------9/
  E|-------------------------------|-------------------------------|
  e|------- ------- ------- -------|------- ------- ------- -------|
  B|-------------------------------|-------------------------------|
  G|-------------------------------|-------------------------------|
  D|-------------------------------|-------------------------------|
  A|10-----------------------------|-------------------------------|
  E|-------------------------------|-------------------------------|


B Bend
R Release
/ Slide up
\ Slide down
H Hammer-on
P Pull-off
~ Vibrato
+ Harmonic
x Mute note
. Play note like a dot in standard notation
^ Ties two notes together
(. Pause


C D G
variations - click chord images
Transpose chords:
Tuning:
Cool service:
View: Size:
A  A  A
Rating:
Layout:
  • Currently 2.8/5 Stars.
  • 1
  • 2
  • 3
  • 4
  • 5
 
Accuracy:
  • Currently 2.6/5 Stars.
  • 1
  • 2
  • 3
  • 4
  • 5
 
click stars to rate
Chordie recommends:
Check out JamPlay.com for online video guitar lessons
Songbook:
Login to add this song to your songbook
Support the artist
Preview/buy this song
MSN Music
Why this non-profit ad?

 
login to add comments/video/corrections

Sharkfin (report comment to admin):
any mower = anymore