Real Love

Beatles

 D#mA#
E|---------1---3---5-------6-------|---------5-------3-------5-------|
B|-----3---------------3-------3---|-5-------------------------------|
G|---------------------------------|-----2-------2-------2-----------|
D|-0-------------------------------|---------------------------------|
A|---------------------------------|---------------------------------|
E|---------------------------------|---------------------------------|


 D#mA#
E|---------1---3---5-------6-------|-5---------------5-------5-------|
B|-----3---------------3-------3---|---------5-----------------------|
G|---------------------------------|-----2-------2-------2-----------|
D|-0-------------------------------|---------------------------------|
A|---------------------------------|---------------------------------|
E|---------------------------------|---------------------------------|


 D#Gm
 All my little plans and schemes  
 CmA#+
 Lost like some forgotten dreams  
 G#Fm
 Seems that all I really was doing  
 A#D#G#D#G#
  Was waiting for you             

 D#Gm
 Just like little girls and boys  
 CmA#+
 Playing with their little toys  
 G#Fm
 Seems like all they really were doing  
 A#D#G#D#G#
  Was waiting for love             

 D#G#m
 Don't need to be alone  
 D#G#m
 No need to be alone  
 D#CmG#A#
  It's real love, it's real
 D#CmG#A#
  Yes it's real love, it's real

INTERLUDE:

 D#mA#
E|---------1---3---5-------6-------|---------5-------3-------5-------|
B|-----3---------------3-------3---|-5-------------------------------|
G|---------------------------------|-----2-------2-------2-----------|
D|-0-------------------------------|---------------------------------|
A|---------------------------------|---------------------------------|
E|---------------------------------|---------------------------------|


 D#mA#
E|---------1---3---5-------6-------|-5---------------5-------5-------|
B|-----3---------------3-------3---|---------5-----------------------|
G|---------------------------------|-----2-------2-------2-----------|
D|-0-------------------------------|---------------------------------|
A|---------------------------------|---------------------------------|
E|---------------------------------|---------------------------------|


 D#Gm
 From this moment on I know  
 CmA#+
Exactly where my life will go  
 G#Fm
 Seems that all I really was doing  
 A#D#G#D#G#
  Was waiting for love             

 D#G#m
 Don't need to be afraid  
 D#G#m
 No need to be afraid  
 D#CmG#A#
  It's real love, it's real
 D#CmG#A#
  Yes it's real love, it's real

GUITAR SOLO: Fm C Fm A#7sus4 A#7

 D#Gm
 Thought I'd been in love before  
 D#Gm
But in my heart, I wanted more  
 G#Fm
 Seems like all I really was doing  
 A#D#G#D#G#
  Was waiting for you             

 D#G#m
 Don't need to be alone  
 D#G#m
 Don't need to be alone  

 D#CmG#A#
  It's real love, it's real
 D#CmG#A#
  It's real love, it's real
 D#CmG#A#
  Yes it's real love, it's real
 D#CmG#A#
  It's real love, it's real
 D#CmG#A#
  Yes it's real love, it's real
 D#CmG#A#
  It's real love, it's real
 D#CmG#A#
  Yes it's real love, it's real
 D#CmG#A#
  It's real love, it's real

CHORDS (play the chords with capo at 1st fret)

D#m 5 6 7 7 5 X
 A#556775
 D#        X
 Gm222442
 Cm        X
A#+ 1 2 2 3 0 X
 G#334553
 Fm        0
 G#m333553
 C         X
A#7sus4 0 3 0 2 0 X
A#7 0 2 0 2 0 X


A# A#+ Cm D# D#m Fm G# G#m Gm
variations - click chord images
Transpose chords:
Tuning:
Cool service:
View: Size:
A  A  A
Rating:
Layout:
  • Currently 4/5 Stars.
  • 1
  • 2
  • 3
  • 4
  • 5
 
Accuracy:
  • Currently 3.3/5 Stars.
  • 1
  • 2
  • 3
  • 4
  • 5
 
click stars to rate
Chordie recommends:
Learn to play guitar with video-based, online guitar lessons at JamPlay.com
Songbook:
Login to add this song to your songbook
Support the artist
Preview/buy this song
MSN Music
Why this non-profit ad?

 
login to add comments/video/corrections