Chordie logo

Rocky Racoon   Beatles



Song: Rocky Raccoon
Artists: The Beates
Album:The Beatles(The White Album)
Writen By: Lennon/McCartney

Lyrics:

Now somewhere in the black mountain hills of Dakota
There lived a young boy named Rocky Raccoon
And one day his woman ran off with another guy
Hit young Rocky in the eye Rocky didn't like that
He said I'm gonna get that boy
So one day he walked into town
Booked himself a room in the local saloon.

Rocky Raccoon checked into his room
Only to find Gideon's bible
Rocky had come equipped with a gun
To shoot off the legs of his rival
His rival it seems had broken his dreams
By stealing the girl of his fancy.
Her name was Magil and she called herself Lil
But everyone knew her as Nancy.
Now she and her man who called himself Dan
Were in the next room at the hoe down
Rocky burst in and grinning a grin
He said Danny boy this is a showdown
But Daniel was hot-he drew first and shot
And Rocky collapsed in the corner.

Now the doctor came in stinking of gin
And proceeded to lie on the table
He said Rocky you met your match
And Rocky said, Doc it's only a scratch
And I'll be better I'll be better doc as soon as I am able.

Now Rocky Raccoon he fell back in his room
Only to find Gideon's bible
Gideon checked out and he left it no doubt
To help with good Rocky's revival.

 the guitar part is just the same thing throughout the entire song.

e|------3--3--3------3--3--3-------3--3--3-----2--2--2--|
B|------1--1--1------1--1--1-------1--1--1-----1--1--1--|
G|------2--2--2------2--2--2-------2--2--2-----2--2--2--|
D|----------------------------------0-------------0-----|
A|--0---------------0-----------------------------------|
E|------------------------------------------------------|

e|-----1--1--1-----1--1--1------3--3--3-----3--3--3--------------------------------|
B|-----0--0--0-----0--0--0------1--1--1-----1--1--1--------------------------------|
G|-----0--0--0-----0--0--0------2--2--2-----2--2--2--------------------------------|
D|---------------------------------------------------------------------------------|
A|-------------------------------3-------------2-----------------------------------|
E|--3------------3-----------------------------------------------------------------|

its really an easy song to learn. the singing is really easy to put with it.
im  sure this is 100%


Important: The song above is NOT stored on the Chordie server. The original song is hosted at www.guitaretab.com. Chordie works as a search engine and provides on-the-fly formatting. Chordie does not index songs against artists/composers will. To remove this song please click here.

This song is displayed as text-only. Transposing and tuning is only available for chordpro-songs.

Login - add to songbook

Rating click stars to rate

Layout
Accuracy

SHARE PAGE  



You need to log in to post comments