"yes"; ?> Yellow Submarine by Beatles - guitar chords, guitar tabs and lyrics - chordie

Yellow Submarine

Beatles

 GDCGEmAmEmDG
E-------|| -2---------------|-3-----0---|-0-------0---0---|-2--------- ||
B---0-1-|| -3---------0---0-|-0-----0-0-|-1-------1---0-0-|-3-----0-1- ||
G-------||.-2-----------2---|-0-----0---|-2-0-----2---0---|-2---------.||
D-------||.-0---------------|-0-----2---|-2---2---2-2-2---|-0---------.||
A-------|| -----------------|-2-----2---|-0-------0---2---|----------- ||
E-------|| -----------------|-3-----0---|-------------0---|----------- ||

^ ^ ^ ^ ^ ^ ^ ^ ^ ^ ^ ^ ^ ^ ^ ^ ^
VERSE:
 DCGEmAmEm
E|| ---2-2-2-2-------|---3-3-3-3---0---|-0-----0-0---0---|
B|| -3-3-3-3-3-0---0-|---0-0-0-0---0-0-|-1-----1-1---0-0-|
G||.---2-2-2-2---2---|-0-0-0-0-0---0---|-2-0---2-2---0---|
D||.---0-0-0-0-------|---0-0-0-0---2---|-2---2-2-2-2-2---|
A|| -----------------|---2-2-2-2---2---|-0-----0-0---2---|
E|| -----------------|---3-3-3-3---0---|-------------0---|

^ ^ ^ ^ ^ ^ ^ ^ ^ ^ ^ ^
  1---------------\   2----------------

 DGDG
E|---2-2-2-2------- ||---2-2-2---------|
B|-3-3-3-3-3---0-1- ||-3-3-3-3---------|
G|---2-2-2-2-------.||---2-2-2---------|
D|---0-0-0-0-------.||---0-0-0-0-------|
A|----------------- ||-----------3-2-0-|
E|----------------- ||-----------------|

^ ^ ^ ^ ^ ^ ^ ^
CHORUS
G D G Go back to VERSE
E|| -3-3-3-3-|-2-2-2-2-2-2-2-2-|-2-2-2-2-2-2-2-2-|-3-3-3-3-3-3-3-3- ||
B|| -3-3-3-3-|-3-2-2-2-2-3-3-3-|-3-3-3-3-3-3-3-3-|-0-0-0-0-0-0-0-0- ||
G||.-0-0-0-0-|-2-2-2-2-2-2-2-2-|-2-2-2-2-2-2-2-2-|-0-0-0-0-0-0-0-0-.||
D||.-0-0-0-0-|-0-0-0-0-0-0-0-0-|-0-0-0-0-0-0-0-0-|-0-0-0-0-0-0-0-0-.||
A|| -2-2-2-2-|-----------------|-----------------|-2-2-2-2-2-2-2-2- ||
E|| -3-3-3-3-|-----------------|-----------------|-3-3-3-3-3-3-3-3- ||

^ ^ ^ ^ ^ ^ ^ ^ ^ ^ ^ ^ ^ ^ ^ ^
WORDS:
INTRO VERSE:
In the town where I was born
Lived a man who sailed the sea
And he told us of his life
In the land of submarines
VERSE 1:
So we sailed up to the sun
Till we found the sea of green
And we lived beneath the waves
In our yellow submarine
CHORUS:
We all live in a yellow submarine
Yellow submarine, yellow submarine
We all live in a yellow submarine
Yellow submarine, yellow submarine
VERSE 2:
And our friends are all on board
Many more of them live next door
And the band begins to play...
CHORUS
VERSE 3:
As we live a life of ease
Everyone of us has all we need
Sky of blue and sea of green
In our yellow submarine
CHORUS (repeat and fade)



Am C D Em G
variations - click chord images
Transpose chords:
Tuning:
Cool service:
View: Size:
A  A  A
Rating:
Layout:
  • Currently 2.9/5 Stars.
  • 1
  • 2
  • 3
  • 4
  • 5
 
Accuracy:
  • Currently 3.6/5 Stars.
  • 1
  • 2
  • 3
  • 4
  • 5
 
click stars to rate
Chordie recommends:
Get acoustic guitar lessons and electric guitar lessons at JamPlay.com
Songbook:
Login to add this song to your songbook
Support the artist
Preview/buy this song
MSN Music
Why this non-profit ad?

 
login to add comments/video/corrections