Guitar Tabs, Chords and Lyrics


Help!  Beatles

[Bm]Help! I need some[Bm/A]body
[G]Help! Not just any[G/F#]body
[E] Help! You know I need someone,
[A]Help!
[A]  When I was younger, so much [C#m]younger than today,
[F#m]    I never needed anybody's [D]help in [G]any [A]way.
[A] But now those days are gone I'm [C#m]not so self-assured,
[F#m] Now I find I've changed my mind, I've [D]opened [G]up the [A]door.
H[Bm]elp me if you can I'm feeling down,[Bm/A] and I d[G]o appreciate you being 'round[G/F#].
E A(guitar run)
Help me get my feet back on the ground, won't you please please help me.
[A]  And now my life has changed in [C#m]oh so many ways,
[F#m]   My independence seemed to [D]vanish [G]in the [A]haze.
But every now and then I [C#m]feel so insecure,
[F#m]    I know that I just need you like I've [D]never[G] done [A]before.
H[Bm]elp me if you can I'm feeling down,[Bm/A] and I d[G]o appreciate you being 'round[G/F#].
H[E]elp me get my feet back on the ground, won't you p[A]lease please help me.
[A]When I was younger, so much y[C#m]ounger than today,
[F#m]    I never needed anybody's [D]help in [G]any [A]way.
[A] But now those days are gone I'm [C#m]not so self-assured,
[F#m]    Now I find I've changed my mind, I've o[D]pened [G]up the [A]door.
H[Bm]elp me if you can I'm feeling down,[Bm/A] and I d[G]o appreciate you being 'round[G/F#].
[E]  Help me get my feet back on the ground, won't you [A]please please help me.
Help [F#m]me, help [A]me, [A6]ooo.
Guitar run at chorus end: * Tabbed *
B ---0----0----0----0-                   *          by         *

G --0----0----0----0-- * Chris *
D -5----4----3----2--- * Williscroft *
A 7----6----5----4----
Bass: Intro:
D--9-9-9-9-9-9-9-7-5-5-5-5-5-5-5-4-2-2-2-2-2-2-2-2-7--

A--------------------------------------------------0--
first verse:
D--7-7---7-7--------------6-----6-------4-4---4-4----------5-7-7-7---5---

A------7-----7--------4-4---4-4-------------4-----4----5-5---------7-----
D-7-7---7-7---------6-----6----4-4---4-4-----------5-7-7-7-7-7-----
A-----7-----7---4-4---4-4----------4-----4-----5-5-----------------
chorus:
A--2-2-----2-2-----2-2-----2-2-------5-5-----5-5-----5-5---------------

E------2-2-----2-2-----2-2-----5-3-3-----3-3-----3-3-----3-3-2-2-----
A---------2-2---2---------2-2---2-7-----------------------------------
E-0-0-4-4-----4---0-0-4-4-----4---------------------------------------
second verse:
D--7-7----7-7----------6-----6---4-4---4-4--------5-7-7---5------

A------7------7----4-4---4-4---------4-----4--5-5-------7---------
D--7-7----7-7----------------------4-4---4-4---------5-5-7-7-7-7---
A------7------7----4-4----4-4----------4-----4---5-5---------------
E----------------------4------4------------------------------------
chorus
third verse:
D------7-------------------------4-----------5--------------7------7-7--

A-------------------4--------------------------3-5------5-5----5-5------
D------6--------6----4-4---4-4-----------5-7-7-7-----------------------
A--4-4------4-4----------4-----4-----5-5-------------------------------
chorus
outro:
D----4-4---------4-4-------4--------7---------------------------------

A----------4-4----------4-----------0---------------------------------

Important: The song above is NOT stored on the Chordie server. The original song is hosted at www.guitaretab.com. Chordie works as a search engine and provides on-the-fly formatting. Chordie does not index songs against artists/composers will. To remove this song please click here.

Text color:
Chord color:
Chord grids: 
Font size:    
Page size: 

A A6 Bm Bm/A C#m D E F#m G G/F#
variations - click chord images

Login - add to songbook

Transpose chords

Tuning

Rating click stars to rate

Layout
Accuracy

Jango Player

SHARE PAGE  




You need to log in to post comments