eToCache5 = ""; ?> by Unknown - guitar chords, guitar tabs and lyrics - chordie
-----------------------------------------------------------------

-----------------------------------------------------------------
e|------ ------ ------ ------|------ ------ ------ ------|
B|---------------------------|---------------------10-12-|
G|---------------------------|---------------/-11--------|
D|---------------------------|---------------------------|
A|---------------------------|---------------------------|
E|---------------------------|---------------------------|

e/10-10- 10/10- 10-10-/10-10-|13P10- ------ ------ ------|
B/10-10--10/10--10-10-/10-10-|-------13P10---------------|
G|---------------------------|------------13\12----10----|
D|---------------------------|-----------------------/12-|
A|---------------------------|-----------------------/12-|
E|---------------------------|---------------------------|
e|------ ------ ------ ------|------ ------ ------ ------|
B|---------------------------|---------------------10-10-|
G|---------/11-----11--11-11-/11-----11/11-----12B-------|
D|-------12/12-----12--12-12-/12-----12/12---------------|
A|-------12/12-----12--12-12-/12-----12/12---------------|
E|---------------------------|---------------------------|


G5 G6 G7 G6 G5 ...
e|------ ------ ------ ------|------ ------ ------ ------|
B|---------------------------|---------------------------|
G|--------------10-----------|--------------10-----------|
D|12-12--14-----12-----14-12-|---12--14-----12-----14----|
A|10-10--10-----10-----10-10-|---10--10-----10-----10----|
E|---------------------------|---------------------------|
e|------ ------ ------ ------|------ ------ ------ ------|
B|---10---------------10--10-|-------10-10---------10-10-|
G|12B----12-10--10----10--10-|-------10-10---------10-10-|
D|-----------------12--------|---12------------12--------|
A|---------------------------|---------------------------|
E|---------------------------|---------------------------|


D5 D6 D7 D6 D5 ...
e|------ ------ ------ ------|------ ------ ------ ------|
B|---------------------------|---------------------------|
G|---------------------------|---------------------------|
D|--------------10-----------|--------------10-----------|
A|12-12--14-----12-----14-12-|12-12--14-----12-----14----|
E|10-10--10-----10-----10-10-|10-10--10-----10-----10----|
e|------ ------ ------ ------|10---- ---12- 13---- ---10-|
B|-------10-10---------10-12-|10--------12--13--------10-|
G|-------10-10---------10-12-|---------------------------|
D|---12------------12--------|---------------------------|
A|---------------------------|---------------------------|
E|---------------------------|---------------------------|


 G5G6G7A5A6A7A6D5
e|------ ------ ------ ------|------ ------ ------ ------|
B|---------------------------|---------------------------|
G|--------------10-----------|--------------12-----------|
D|12-12--14-----12--------14-|---14--16-----14-----16----|
A|10-10--10-----10--------12-|---12--12-----12-----12-12-|
E|---------------------------|------------------------10-|
e|---12- 13-12- 10---- ------|------ ------ ------ ------|
B|---12--13-12--10-----10----|---------------------------|
G|-----------------12--10----|---------------------------|
D|------------------------12-|-------12--------10-----12-|
A|---------------------------|---------------------------|
E|---------------------------|---------------------------|


D6 D7 D6 D5 ...
e|------ ------ ------ ------|------ ------ ------ ------|
B|---------------------------|---------------------------|
G|---------------------------|---------------------------|
D|--------------10-----------|--------------10-----------|
A|---12--14-----12-----14-12-|---12--14-12--12-----14-12-|
E|---10--10-----10-----10-10-|---10--10-10--10-----10-10-|
e|------ ------ ------ ------|------ ------ ------ ------|
B|---------------------------|---------------------------|
G|---------------------------|---------------------------|
D|---------------------------|---------------------------|
A|---12----------------------|---------------------------|
E|---------------------------|---------------------------|

Gonna

 G5G6G7G6G5
e|------ ------ ------ ------|------ ------ ------ ------|
B|---------------------------|---------------------------|
G|---------------------------|--------------10-----------|
D|--------------10-----------|12-12--14-----12-----14-12-|
A|12-12--14-----12-----14----|10-10--10---- 10-----10-10-|
E|10-10--10-----10-----10----|---------------------------|  

write a little letter gonna mail it to my local DJ

D5 D6 D7 D6 D5 ...
e|------ ------ ------ ------|------ ------ ------ ------|
B|---------------------------|---------------------------|
G|---------------------------|---------------------------|
D|--------------10-----------|--------------10-----------|
A|12-12--14-----12-----14-12-|12-12--14-----12-----12----|
E|10-10--10-----10-----10-10-|10-10--10-----10-----10----|  

It's a

G5 G6 G7 G6 G5 ...
e|------ ------ ------ ------|------ ------ ------ ------|
B|---------------------------|---------------------------|
G|--------------10-----------|--------------10-----------|
D|12-12--14-----12-----14-12-|---12--14-----12-----14----|
A|10-10--10-----10-----10-10-|---10--10-----10-----10----|
E|---------------------------|---------------------------|  

rockin' little record I want my jockey to play

D5 D6 D7 D6 D5 ...
e|------ ------ ------ ------|------ ------ ------ ------|
B|---------------------------|---------------------------|
G|---------------------------|---------------------------|
D|--------------10-----------|--------------10-----------|
A|12-12--14-----12-----14-12-|12-12--14-----12-----12----|
E|10-10--10-----10-----10-10-|10-10--10-----10-----10----| 

Roll o..

 G5G6G7G6A5A6A7A6
e|------ ------ ------ ------|------ ------ ------ ------|
B|---------------------------|---------------------------|
G|--------------10-----------|--------------12-----------|
D|12-12--14-----12-----14----|14-14--16-----14-----16----|
A|10-10--10-----10-----12----|12-12--12-----12-----12----|
E|---------------------------|---------------------------|  

...ver Beethoven gotta hear it again today

D5 D6 D7 D6 D5 ...
e|------ ------ ------ ------|------ ------ ------ ------|
B|---------------------------|---------------------------|
G|---------------------------|---------------------------|
D|--------------10-----------|--------------10-----------|
A|---12--14-12--12-----14-12-|---12--14-----12-----14-12-|
E|---10--10-10--10-----10-10-|---10--10-----10-----10-10-|

You know my

 G5G6G7G6
e|------ ------ ------ ------|------ ------ ------ ------|
B|---------------------------|---------------------------|
G|---------------------------|--------------10-----------|
D|--------------10-----------|12-12--14-----12-----14----|
A|12-12--14-----12-----14----|10-10--10---- 10-----10----|
E|10-10--10-----10-----10----|---------------------------|    

temperature's risin' and the jukebox blows a fuse

D5 D6 D7 D6 D5 ...
e|------ ------ ------ ------|------ ------ ------ ------|
B|---------------------------|---------------------------|
G|---------------------------|---------------------------|
D|--------------10-----------|--------------10-----------|
A|12-12--14-----12-----14-12-|12-12--14-12--12-----14----|
E|10-10--10-----10-----10-10-|10-10--10-10--10-----10----| 

My

G5 G6 G7 G6 G5 ...
e|------ ------ ------ ------|------ ------ ------ ------|
B|---------------------------|---------------------------|
G|--------------10-----------|--------------10-----------|
D|12-12--14-----12-----14-12-|---12--14-----12-----14----|
A|10-10--10-----10-----10-10-|---10--10-----10-----10----|
E|---------------------------|---------------------------|      

heart's beatin' rhythm and my soul keeps singing the blues

D5 D6 D7 D6 D5 ...
e|------ ------ ------ ------|------ ------ ------ ------|
B|---------------------------|---------------------------|
G|---------------------------|---------------------------|
D|--------------10-----------|--------------10-----------|
A|12-12--14-----12-----14-12-|12-12--14-----12-----14-12-|
E|10-10--10-----10-----10-10-|10-10--10-----10-----10-10-| 

Roll o..

 G5G6G7A5A6A7A6
e|------ ------ ------ ------|------ ------ ------ ------|
B|---------------------------|---------------------------|
G|--------------10-----------|--------------12-----------|
D|12-12--14-----12-----14----|14-----16-----14-----16----|
A|10-10--10-----10-----12----|12-----12-----12-----12----|
E|---------------------------|---------------------------|  

...ver Beethoven and tell Tchaikovsky the news

D5 D6 D7 D6 D5 ...
e|------ ------ ------ ------|------ ------ ------ ------|
B|---------------------------|---------------------------|
G|---------------------------|---------------------------|
D|--------------10-----------|---------------------------|
A|---12--14-----12-----14-12-|---12--14-12--12-12--14-12-|
E|---10--10-----10-----10-10-|---10--10-10--10-10--10-10-| 

I got a

 G5G6G7G6D5
e|------ ------ ------ ------|------ ------ ------ ------|
B|---------------------------|---------------------------|
G|---------------------------|--------------10-----------|
D|--------------10-----------|12-----14-----12-----14----|
A|12-12--14-----12-----14----|10-----10---- 10-----10-12-|
E|10-10--10-----10-----10----|------------------------10-|  

rockin' pneumonia I need a shot of rhythm and blues

D6 D7 D6 D5 ...
e|------ ------ ------ ------|------ ------ ------ ------|
B|---------------------------|---------------------------|
G|---------------------------|---------------------------|
D|--------------10-----------|--------------10-----------|
A|---12--14-----12-----14-12-|---12--14-----12-----14-12-|
E|---10--10-----10-----10-10-|---10--10-----10-----10-10-| 

I think I

G5 G6 G7 G6 G5 ...
e|------ ------ ------ ------|------ ------ ------ ------|
B|---------------------------|---------------------------|
G|--------------10-----------|--------------10-----------|
D|12-12--14-----12-----14-12-|---12--14-----12-----14----|
A|10-10--10-----10-----10-10-|---10--10-----10-----10----|
E|---------------------------|---------------------------|  

got it off the writer sittin' down by the rhythm review

D5 D6 D7 D6 D5 ...
e|------ ------ ------ ------|------ ------ ------ ------|
B|---------------------------|---------------------------|
G|---------------------------|---------------------------|
D|--------------10-----------|--------------10-----------|
A|12-12--14-12--12-----14-12-|---12--14-12--12-----12----|
E|10-10--10-10--10-----10-10-|---10--10-10--10-----10----| 

Roll o..

 G5G6G7G6A5A6A7A6D5
e|------ ------ ------ ------|------ ------ ------ ------|
B|---------------------------|---------------------------|
G|--------------10-----------|--------------12-----------|
D|12-12--14-----12-----14----|14-14--16-----14-----16----|
A|10-10--10-----10-----10----|12-12--12-----12-----12----|
E|---------------------------|---------------------------|  

...ver Beethoven We're rocking in two by two

D6 D5 ...
e|------ ------ ------ ------|------ ------ ------ ------|
B|---------------------------|---------------------------|
G|---------------------------|---------------------------|
D|---------------------------|---------------------------|
A|---12--14-12--12-12--14-12-|12-12--14-12--12-12--14-12-|
E|---10--10-10--10-10--10-10-|10-10--10-10--10-10--10-10-| 

Well if you

 D7D5D6D5
e|------ ------ ------ ------|------ ------ ------ ------|
B|---------------------------|---------------------------|
G|---------------------------|---------------------------|
D|---------------------------|--------------10-----------|
A|---12--14-12--12-12--14-12-|12-12--14-12--12-12--14-12-|
E|---10--10-10--10-10--10-10-|10-10--10-10--10-10--10-10-| 

feel you like it Go get your lover and
e|------ ------ ------ ------|------ ------ ------ ------|
B|---------------------------|---------------------------|
G|11-------------------------|-------11------------------|
D|10-------------------------|-------10------------------|
A|12-------------------------|-------12------------------|
E|10-------------------------|-------10------------------|

... D7 D5 D6 D5
e|------ ------ ------ ------|------ ------ ------ ------|
B|---------------------------|---------------------------|
G|---------------------------|---------------------------|
D|---------------------------|--------------10-----------|
A|---12--14-12--12-12--14-12-|12-12--14-12--12-12--14-12-|
E|---10--10-10--10-10--10-10-|10-10--10-10--10-10--10-10-| 

reel and rock it Roll it over and
e|------ ------ ------ ------|------ ------ ------ ------|
B|---------------------------|---------------------------|
G|11------------11-----------|--------------11-----------|
D|10------------10-----------|--------------10-----------|
A|12------------12-----------|--------------12-----------|
E|10------------10-----------|--------------10-----------|


G5 G6 G7 G6 G5 ...
e|------ ------ ------ ------|------ ------ ------ ------|
B|---------------------------|---------------------------|
G|--------------10-----------|---------------------------|
D|12-12--14-----12-----14-12-|---12--14-12-----12--14----|
A|10-10--10-----10-----10-10-|---10--10-10-----10--10----|
E|---------------------------|---------------------------|  

move on up Just jump around and

D5 D6 D5 ... D7 D5 D6 D5
e|------ ------ ------ ------|------ ------ ------ ------|
B|---------------------------|---------------------------|
G|---------------------------|---------------------------|
D|---------------------------|--------------10-----------|
A|12-12--14-12--12-12--14-12-|12-12--14-12--12-12--14-12-|
E|10-10--10-10--10-10--10-10-|10-10--10-10--10-10--10-10-| 

reel and rock it Roll it over Roll o..
e|------ ------ ------ ------|------ ------ ------ ------|
B|---------------------------|---------------------------|
G|11------------11-----------|--------------11-----------|
D|10------------10-----------|--------------10-----------|
A|12------------12-----------|--------------12-----------|
E|10------------10-----------|--------------10-----------|

 G5G6G7A5A6A7A6
e|------ ------ ------ ------|------ ------ ------ ------|
B|---------------------------|---------------------------|
G|--------------10-----------|--------------12-----------|
D|12-12--14-----12-----14----|14-----16-----14-----16----|
A|10-10--10-----10-----12----|12-----12-----12-----12----|
E|---------------------------|---------------------------| 

...ver Beethoven A rockin' in two by two

D5 D6 D5 ...
e|------ ------ ------ ------|------ ------ ------ ------|
B|---------------------------|---------------------------|
G|---------------------------|---------------------------|
D|---------------------------|---------------------------|
A|12-----14-----12-12--14-12-|---12--14-12-----12--14----|
E|10-----10-----10-10--10-10-|---10--10-10-----10--10----|


Solo
 DG
e|------ ------ ------ ------|------ ------ ------ ------|
B|---------------------------|---------------------------|
G|---------------------------|--------------10-----------|
D|--------------10-----------|12-12--14-----12-----14----|
A|12-12--14-----12-----14----|10-10--10---- 10-----10----|
E|10-10--10-----10-----10----|---------------------------|
e|10-13- 10---- ------ ---10-|------ ------ ------ ------|
B|10--------13--10--------10-|-------10--------10--------|
G|11--------------/14--------12B14------12B14-----/14----|
D|---------------------------|---------------------------|
A|---------------------------|---------------------------|
E|---------------------------|---------------------------|   


 D
e|------ ------ ------ ------|------ ------ ------ ------|
B|---------------------------|---------------------------|
G|---------------------------|---------------------------|
D|--------------10-----------|--------------10-----------|
A|12-12--14-----12-----14-12-|12-12--14-12--12-----14----|
E|10-10--10-----10-----10-10-|10-10--10-10--10-----10----|
e|------ ------ ------ ------|------ ------ ------ ------|
B|10--------10---------10----|---------------------10-10-|
G|--/14--------/14--------14\|12-10-----------12/14------/
D|---------------------------|---------------------------|
A|---------------------------|---------------------------|
E|---------------------------|---------------------------|


 G
e|------ ------ ------ ------|------ ------ ------ ------|
B|---------------------------|---------------------------|
G|--------------10-----------|--------------10-----------|
D|12-12--14-----12-----14-12-|---12--14-----12-----14----|
A|10-10--10-----10-----10-10-|---10--10-----10-----10----|
E|---------------------------|---------------------------|
e|------ ------ ------ ------|------ ------ ------ ------|
B|---10----------------10-10-|-------10-10---------10-10-|
G|14-----12-10--10-----10-10-|-------10-10---------10-10-|
D|-----------------12--------|---12------------12--------|
A|---------------------------|---------------------------|
E|---------------------------|---------------------------|


 D
e|------ ------ ------ ------|------ ------ ------ ------|
B|---------------------------|---------------------------|
G|---------------------------|---------------------------|
D|--------------10-----------|--------------10-----------|
A|12-12--14-----12-----14-12-|12-12--14-----12-----14-12-|
E|10-10--10-----10-----10-10-|10-10--10-----10-----10-10-|
e|------ ------ ------ ------|------ ------ ------ ------|
B|-------10-10---------10-10-|-------10-10---------10-12-|
G|-------10-10---------10-10-|-------10-10---------10-12-|
D|---12------------12--------|---12------------12--------|
A|---------------------------|---------------------------|
E|---------------------------|---------------------------|    


 GA
e|------ ------ ------ ------|------ ------ ------ ------|
B|---------------------------|---------------------------|
G|--------------10-----------|--------------12-----------|
D|12-12--14-----12-----14----|14-14--16-----14-----16----|
A|10-10--10-----10-----10----|12-12--12-----12-----12----|
E|---------------------------|---------------------------|
e|------ ------ 13---- ------|10-13- ---10- ------ ------|
B|12B13--12-----12-----------|12--------10---------------|
G|12B13--12-----12-----------|12------------12-13--12-10-|
D|---------------------------|---------------------------|
A|---------------------------|---------------------------|
E|---------------------------|---------------------------|


 D
e|------ ------ ------ ------|------ ------ ------ ------|
B|---------------------------|---------------------------|
G|---------------------------|---------------------------|
D|--------------10-----------|--------------10-----------|
A|12-12--14-----12-----14-12-|12-12--14-----12-----14-12-|
E|10-10--10-----10-----10-10-|10-10--10-----10-----10-10-| 

Ear..
e|------ ------ ------ ------|------ ------ ------ ------|
B|---------------------------|---------------------------|
G|---------------------------|-------11------------------|
D|12-----12-----10-10--9--12-|----------12--10-----------|
A|---------------------------|---12----------------------|
E|---------------------------|---------------------------|


 G
e|------ ------ ------ ------|------ ------ ------ ------|
B|---------------------------|---------------------------|
G|---------------------------|--------------10-----------|
D|--------------10-----------|12-----14-----12-----14-12-|
A|12-12--14-----12-----14----|10-----10---- 10-----10-10-|
E|10-10--10-----10-----10----|---------------------------|  

...ly in the mornin'I'm a givin' you the warnin'Don't you

 D
e|------ ------ ------ ------|------ ------ ------ ------|
B|---------------------------|---------------------------|
G|---------------------------|---------------------------|
D|--------------10-----------|--------------10-----------|
A|12-12--14-----12-----14-12-|---12--14-12--12-----12----|
E|10-10--10-----10-----10-10-|---10--10-10--10-----10----|  

step on my blue suede shoes Hey
 G
e|------ ------ ------ ------|------ ------ ------ ------|
B|---------------------------|---------------------------|
G|--------------10-----------|--------------10-----------|
D|12-12--14-----12-----14-12-|---12--14-----12-----14----|
A|10-10--10-----10-----10-10-|---10--10-----10-----10-12-|
E|---------------------------|------------------------10-|  

little little I'll play my fiddle

 D
e|------ ------ ------ ------|------ ------ ------ ------|
B|---------------------------|---------------------------|
G|---------------------------|---------------------------|
D|--------------10-----------|--------------10-----------|
A|12-12--14-----12-----14-12-|12-12--14-----12-----12----|
E|10-10--10-----10-----10-10-|10-10--10-----10-----10----|  

Ain't got nothing to lose Roll o..
e|------ ------ ------ ------|------ ------ ------ ------|
B|---------------------7--7--|---------------------------|
G|---------------------5--5--|---------------------------|
D|---------------------7--7--|---------------------------|
A|---------------------5--5--|---------------------------|
E|---------------------------|---------------------------|


 GA
e|------ ------ ------ ------|------ ------ ------ ------|
B|---------------------------|---------------------------|
G|--------------10-----------|--------------12-----------|
D|12-12--14-----12-----14----|14-----16-----14-----16----|
A|10-10--10-----10-----12----|12-----12-----12-----12-12-|
E|---------------------------|------------------------10-|  

...ver Beethoven And tell Tchaikovsky the news

 D
e|------ ------ ------ ------|------ ------ ------ ------|
B|---------------------------|---------------------------|
G|---------------------------|---------------------------|
D|--------------10-----------|--------------10-----------|
A|---12--14-----12-----14-12-|12-12--14-----12-----12----|
E|---10--10-----10-----10-10-|10-10--10-----10-----10----|  

You know she
e|------ ------ ------ ------|------ ------ ------ ------|
B|---7---7-------------7--7--|---------------------------|
G|---5---5-------------5--5--|---------------------------|
D|---7---7-------------7--7--|---------------------------|
A|---5---5-------------5--5--|---------------------------|
E|---------------------------|---------------------------|


 G
e|------ ------ ------ ------|------ ------ ------ ------|
B|---------------------------|---------------------------|
G|---------------------------|--------------10-----------|
D|--------------10-----------|12-12--14-----12-----14-12-|
A|12-12--14-----12-----14----|10-10--10---- 10-----10-10-|
E|10-10--10-----10-----10----|---------------------------|  

winks like a glow worm Dance like a spinnin' top
e|------ ------ ------ ------|------ ------ ------ ------|
B|7----------------7---------|---------------------------|
G|5----------------5---------|---------------------------|
D|7----------------7---------|---------------------------|
A|5----------------5---------|---------------------------|
E|---------------------------|---------------------------|


 D
e|------ ------ ------ ------|------ ------ ------ ------|
B|---------------------------|---------------------------|
G|---------------------------|---------------------------|
D|--------------10-----------|--------------10-----------|
A|12-12--14-----12-----14-12-|15-----14-----12-----14----|
E|10-10--10-----10-----10-10-|10-----10-----10-----10----|  

She's got a
e|------ ------ ------ ------|------ ------ ------ ------|
B|--------------7--7------7--|7------7-------------------|
G|--------------5--5------5--|5------5-------------------|
D|--------------7--7------7--|7------7-------------------|
A|--------------5--5------5--|5------5-------------------|
E|---------------------------|---------------------------|


 G
e|------ ------ ------ ------|------ ------ ------ ------|
B|---------------------------|---------------------------|
G|--------------10-----------|--------------10-----------|
D|12-12--14-----12-----14-12-|---12--14-----12-----14----|
A|10-10--10-----10-----10-10-|---10--10-----10-----10----|
E|---------------------------|---------------------------|  

crazy partner Oughta see 'em reel and rock

 D
e|------ ------ ------ ------|------ ------ ------ ------|
B|---------------------------|---------------------------|
G|---------------------------|---------------------------|
D|--------------10-----------|--------------10-----------|
A|12-12--14-----12-----14-12-|12-12--14-12--12-----12----|
E|10-10--10-----10-----10-10-|10-10--10-10--10-----10----|  

Long as
e|------ ------ ------ ------|------ ------ ------ ------|
B|----------7-------------7--|---7----------7------------|
G|----------5-------------5--|---5----------5------------|
D|----------7-------------7--|---7----------7------------|
A|----------5-------------5--|---5----------5------------|
E|---------------------------|---------------------------|


 GA
e|------ ------ ------ ------|------ ------ ------ ------|
B|---------------------------|---------------------------|
G|--------------10-----------|--------------12-----------|
D|12-12--14-----12-----14----|14-----16-----14-----16----|
A|10-10--10-----10-----12----|12-----12-----12-----12-12-|
E|---------------------------|------------------------10-|  

she got a dime The music will never stop

 D
e|------ ------ ------ ------|------ ------ ------ ------|
B|---------------------------|---------------------------|
G|---------------------------|---------------------------|
D|--------------10-----------|--------------10-----------|
A|---12--14-----12-----14-12-|12-12--14-----12-----12----|
E|---10--10-----10-----10-10-|10-10--10-----10-----10----|  

Roll over Bee...
e|------ ------ ------ ------|------ ------ ------ ------|
B|---7------7---7---------7--|---7------7------7---7--7--|
G|---5------5---5---------5--|---5------5------5---5--5--|
D|---7------7---7---------7--|---7------7------7---7--7--|
A|---5------5---5---------5--|---5------5------5---5--5--|
E|---------------------------|---------------------------|
e|------ ------ ------ ------|------ ------ ------ ------|
B|---------------------------|---------------------------|
G|---------------------------|---------------------------|
D|--------------10-----------|--------------10-----------|
A|12-12--14-----12-----14-12-|12-12--14-12--12-----12----|
E|10-10--10-----10-----10-10-|10-10--10-10--10-----10----|  

thoven Roll over Bee...
e|------ ------ ------ ------|------ ------ ------ ------|
B|-------7------7---------7--|----------7---7--7---7--7--|
G|-------5------5---------5--|----------5---5--5---5--5--|
D|-------7------7---------7--|----------7---7--7---7--7--|
A|-------5------5---------5--|----------5---5--5---5--5--|
E|---------------------------|---------------------------|
e|------ ------ ------ ------|------ ------ ------ ------|
B|---------------------------|---------------------------|
G|---------------------------|---------------------------|
D|--------------10-----------|--------------10-----------|
A|12-12--14-----12-----14-12-|12-12--14-12--12-----12----|
E|10-10--10-----10-----10-10-|10-10--10-10--10-----10----|  

thoven Roll over Bee...
e|------ ------ ------ ------|------ ------ ------ ------|
B|-------7------7---------7--|-------7------7--7---7-----|
G|-------5------5---------5--|-------5------5--5---5-----|
D|-------7------7---------7--|-------7------7--7---7-----|
A|-------5------5---------5--|-------5------5--5---5-----|
E|---------------------------|---------------------------|


 G
e|------ ------ ------ ------|------ ------ ------ ------|
B|---------------------------|---------------------------|
G|--------------10-----------|--------------10-----------|
D|12-12--14-----12-----14-12-|---12--14-----12-----14----|
A|10-10--10-----10-----10-10-|---10--10-----10-----10----|
E|---------------------------|---------------------------|  

thoven Roll over Bee...
e|------ ------ ------ ------|------ ------ ------ ------|
B|-------6------6--6------6--|-------6------6--6---6--6--|
G|-------4------4--4------4--|-------4------4--4---4--4--|
D|-------3------3--3------3--|-------3------3--3---3--3--|
A|-------5------5--5------5--|-------5------5--5---5--5--|
E|-------3------3--3------3--|-------3------3--3---3--3--|


 D
e|------ ------ ------ ------|------ ------ ------ ------|
B|---------------------------|---------------------------|
G|---------------------------|---------------------------|
D|--------------10-----------|--------------10-----------|
A|12-12--14-----12-----14-12-|12-12--14-12--12-----12----|
E|10-10--10-----10-----10-10-|10-10--10-10--10-----10----|  

thoven Roll over Bee...
e|------ ------ ------ ------|------ ------ ------ ------|
B|7-------------7------------|7---------7----------------|
G|5-------------5------------|5---------5----------------|
D|7-------------7------------|7---------7----------------|
A|5-------------5------------|5---------5----------------|
E|---------------------------|---------------------------|


A5 A6 A5 ...
e|------ ------ ------ ------|------ ------ ------ ------|
B|---------------------------|---------------------------|
G|---------------------------|---------------------------|
D|---------------------------|---------------------------|
A|7------9------7------9-----|7------9--7------7---------|
E|5------5------5------5-----|5------5--5------5---------|  

thoven dig to this rythm and blues
e|------ ------ ------ ------|------ ------ ------ ------|
B|---------------------------|-----------------10---9----|
G|---------------------------|---------------------------|
D|---------------------------|---------------------------|
A|---------------------------|---------------------------|
E|---------------------------|---------------------------|


(.
 GD
e|------ ------ ------ ------|------ 10---- ------ ------|
B|---------------------------|-------10------------------|
G|4------4------7------7--7--|-------11------------------|
D|5------5------7------7--7--|-------12------------------|
A|5------5------5------5--5--|-------12------------------|
E|---------------------------|-------10------------------|
e|------ ------ ------ ------|------ ------ ------ ------|
B|---------------------------|---------------------------|
G|12-10----------------------|---------------------------|
D|----------12--10-----12-12-|---------------------------|
A|-----------------12--------|---------------------------|
E|---------------------------|---------------------------|


B Bend
R Release
/ slide up
\ slide down
H hammer-on
P pull-off
~ vibrato
+ harmonic
x Mute note
. - play note like a dot in standard notation
^ - ties two notes together


A A5 A6 A7 D D5 D6 D7 G G5 G6 G7
variations - click chord images
Transpose chords:
Tuning:
Cool service:
View: Size:
A  A  A
Rating:
Layout:
  • Currently 2/5 Stars.
  • 1
  • 2
  • 3
  • 4
  • 5
 
Accuracy:
  • Currently 2.6/5 Stars.
  • 1
  • 2
  • 3
  • 4
  • 5
 
click stars to rate
Chordie recommends:
Check out JamPlay.com for online video guitar lessons
Songbook:
Login to add this song to your songbook
Support the artist
Preview/buy this song
MSN Music
Why this non-profit ad?

 
login to add comments/video/corrections