""; ?> Here Comes The Sun by Beatles - guitar chords, guitar tabs and lyrics - chordie

Here Comes The Sun

Beatles

 ADE
E---9-----------9-------9-------------9--7------------------7-------
B--10--10--12--10--10--10--12--10--7--7--7--10--7-9-7-9-10--9-------
G---9---9---9---9---9---9---9---9--7--7--7---7--9-9-9-9--9--9-------
D----------------------------------0--0--0---0----------------------
A---0---0---0---0---0---0---0---0-----------------------------------
E-----------------------------------------------------------0-------

^
FOR THE 2ND TIME ON THE CHORUS STOP RIGHT WHERE THE ARROW IS POINTING
THEN THEY GO INTO THE CHORUS
 ADmin7B7
                                    "HERE COMES THE SUN DOODIN DOO DOO, HERE COMES THE SUN, AND I SAY ...
RIGHT AFTER THAT IT GOES INTO THIS
E-------------------------------------------------
B-----2-0----------0-----0-----0-----0------------
G-----2---2------2-----2-----2-----2-----2-1------
D-----2-----2--4-----2-----0-----2-----------4-2--
A--0--0-------------------------------------------
E-------------------------------------------------

THAT IS ALSO PART OF THE CHORUS
QUICKLY THEY GO INTO THE VERSE
 ADE7
                                     LITTLE DARLING, THE SMILES RETURNING TO THE FACES,
THEY DO THAT TWO TIMES BUT THEY ALWAYS DO THE VERSE TWO TIMES IN THE SONG
AFTER THAT THEY RUN THROUGH THE CHORUS THE CHORDS AND ARPEGGIO
BUT THIS TIME FOLLOWING THE CHORUS THEY DO THIS
 A
E--0-0--0-0-------------------
B--2-2--2-2--------------0----
G--2-2--2-2----1---1--2--1----
D--2-2--2-2--4---4----4-------
A--0-0--0-0-------------------
E-----------------------------

^
^
NEXT THEY DO:
VERSE
CHORUS
AFTER THE CHORUS YOU DO THAT SAME THING SHOWN ABOVE BUT YOU STOP
WHERE THE ARROW IS POINTING
THEN THEY GO INTO THE BRIDGE WHICH IS PLAYED 6 TIMES
 ECGDA
E-------------0------3------2---2---0-0--0-0--------------
B------0------1------0------3---3---2-2--2-2--------------
G----1------0------0------2-----2---2-2--2-2----1---1-----
D--2------2--------0----0-----0-----2-2--2-2--4---4-------
A---------3------2------------------0-0--0-0--------------
E----------------3----------------------------------------

^
^
ON THE 6TH TIME STOP WHERE THE ARROW IS POINTING
NEXT IS THE INTERLUDE:
 EEsusEE7
E------------------------------------------
B----------------------0----0--3-3---------
G--1-1----1--2-2--1-2--1--2----2-2---------
D--2-2--4----2-2-------2-------2-2---------
A--2-2-------2-2-------2-------1-1---------
E--0-0-------0-0-------0-------0-0---------

THEN YOU PLAY THE:
VERSE
CHORUS (ONLY WITH CHORDS AND ARPEGGIO)-
THEN FINALLY THE ENDING:
 AECGDA
E-----------------------------------------------0-----3-----2---2--0------
B--0-0--0-0------0-----0-----0-----0------0-----1-----0-----3---3--2------
G--2-2--2-2----2-----2-----2-----2------1-----0-----0-----2-----2--2------
D--2-2--2-2--4-----2-----0-----2------2-----2-------0---0-----0----2------
A--2-2--2-2---------------------------------3-----2----------------0------
E--0-0--0-0---------------------------------------3-----------------------

LET THE A CHORD AT THE END RING FOR A FEW SECONDS
AND THATS ALL FOLKS
ENJOY!
ANY COMMENTS OR QUESTION EMAIL ---> ADAMP328@HOTMAIL.COM
PEACE OUT


A B7 C D Dmin7 E E7 Esus G
variations - click chord images
Transpose chords:
Tuning:
Cool service:
View: Size:
A  A  A
Rating:
Layout:
  • Currently 3.1/5 Stars.
  • 1
  • 2
  • 3
  • 4
  • 5
 
Accuracy:
  • Currently 2.6/5 Stars.
  • 1
  • 2
  • 3
  • 4
  • 5
 
click stars to rate
Chordie recommends:
Learn to play songs at Jamplay.com with video guitar lessons
Songbook:
Login to add this song to your songbook
Support the artist
Preview/buy this song
MSN Music
Why this non-profit ad?

 
login to add comments/video/corrections