__Daytripper

Beatles



-----HERE GOES MY TAKE ON THIS ONE FOLKS [LETS NOT FORGET  IS A GREAT GREAT SONG AND ONE OF THE EASIEST SONGS TO LEARN AND PLAY ALL THE RIFFS AND CHORDS FOR IT ----


RIFF:I) REPEATED X TIMES RIFF:II) REPEATED X TIMES
e----------------------------------|----------------------------------------------e
b----------------------------------|----------------------------------------------b
g----------------------------------|------------2--0-----4-----0--2---------------g
d-----------2--0----4-----0--2-----|----------2--------2----2---------------------d
a---------2-------2----2-----------|--0---3-4-------------------------------------a
e--0--3-4--------------------------|----------------------------------------------e

E ->ROOT A -> ROOT
REPEAT THE MAIN RIFF (I) & (II) TO KICK OFF THE SONG AND THEN CONTINUE THRU THE FIRST FEW LINES.....(U CAN FIGURE THIS OUT EASILY FROM THE SONG PLAYBACK)...
** ALSO NOTE ALTERNATE POSSIBILITY OF OTHER TRANSPOSES OF PLAYING THE SAME ABOVE RIFF (I) AND (II) IN DIFFERENT KEYS.. CHANGING THE ROOT NOTE (E) OR (A) OR (ANYTHING) DEPENDING ON THE GUITAR TUNING ETC...
VERSE:I)------OPENING VERSE--------------------------------------------------------

 E7
 "Got a good reason..."  (SYNCRONIZE RIFF:I HERE)
 E7
 "For taking..."           --CONTINUE ABOVE---
 A7
 "Got a good reason..."  (SYNCRONIZE RIFF:II HERE)
 A7
 "For taking..."           --CONTINUE ABOVE---
-----------------------------------------------------------------------------------
VERSE:II)--------------------------------------------------------------------------

 F#
 "SHE WAS A Day_____ Tripper...." (HERE SYNCRONIZE RIFF:III AS SHOWN BELOW)
"......other words/lines here..."
"see more lyrics to fill here" (BUT RIFF:III ONLY IS USED FOR THIS VERSE)
RIFF:III) REPEATED X TIMES
e-------------------------|-----------------e
b-------------------------|-----------------b
g-------------------------|-----------------g
d-------------------------|-----------------d
a--2--4-4-4-4-4-4-4-------|-----------------a
e--0--2-2-2-2-2-2-2-------|-----------------e

|<--(PM)Muted-->|
-----------------------------------------------------------------------------------

HERE SIMPLY PLAY SUSTAINED CHORDS AS SHOWN BELOW AT THE EXACT POINT IN TIME :::::::
 A7G#7C#B
"IT TOOK ME so_______long to find out, and I found out
BRIDGE VERSE)---------------------------------------------------------------------

++++++ CHORDS USED: B7 E/B F#m/B B6 A/B B7 B
++++++ RIFF USED: REPEAT OF RIFF:IV - SEE BELOW.....
NOTE THAT NOW THE ROOT NOTE IS SHIFTED TO NOTE "B" (THE LAST CHORD PLAYED ABOVE)
NOW PLAY (SEE ABOVE) BUT WITH ROOT NOTE TRANSPOSED TO NOTE "B" WHICH IS 2ND FRET OF 5TH STRING..... HERE IT GOES LIKE THIS BELOW-----
RIFF:IV) REPEATED X TIMES
e----------------------------------|------------e
b-------------------2--------------|------------b
g------------4-2---------2-4-------|------------g
d------0-2-4------4----4-----------|------------d
a--2-------------------------------|------------a
e----------------------------------|------------e

B ->ROOT
REPEAT RIFF:IV SEVERAL TIMES FOR THIS BRIDGE VERSE HERE............................
-----------------------------------------------------------------------------------

SONG ENDING: PLANE LANDING :-)
 E7
 "Day Tripper...etc"
ROOT NOTE SHIFTED BACK TO NOTE "E" = OPEN 6TH STRING....
AND REPEAT RIFF:I)
RIFF:I) REPEATED X TIMES
e----------------------------------|----------------------------------------------e
b----------------------------------|----------------------------------------------b
g----------------------------------|----------------------------------------------g
d-----------2--0----4-----0--2-----|----------------------------------------------d
a---------2-------2----2-----------|----------------------------------------------a
e--0--3-4--------------------------|----------------------------------------------e

E ->ROOT
-----------------

THAT, INDEED MY FRIENDS, HAPPILY MARKS THE END OF THE SONG....
SUCH A WONDERFUL SONG INDEED.....
ENJOY AND HAVE FUN FOLKS......
-----------------

DOCTORED BY:
BASCAR "SUNNY" H.
-----------------

"LIVE FOR THE MUSIK"
"I STARTED A JOKE"
++++++++++++++++++++++++++++++++++++++++++++++++++++++++++++++++++++++++++++++++

A7 B C# E7 F# G#7
variations - click chord images
Transpose chords:
Tuning:
Cool service:
View: Size:
A  A  A
Rating:
Layout:
  • Currently 3.2/5 Stars.
  • 1
  • 2
  • 3
  • 4
  • 5
 
Accuracy:
  • Currently 3/5 Stars.
  • 1
  • 2
  • 3
  • 4
  • 5
 
click stars to rate
Chordie recommends:
Learn to play this song & others via video guitar lessons at JamPlay.com
Songbook:
Login to add this song to your songbook
Support the artist
Preview/buy this song
MSN Music
Why this non-profit ad?

 
login to add comments/video/corrections