"yes"; ?> Come Together by Beatles - guitar chords, guitar tabs and lyrics - chordie

Come Together

Beatles

e|---------------------------|

B|---------------------------|

G|-------------10------------|

D|--0-0--------10---12-------|<=HE PLAYES IT LIKE THIS

A|------10/12------(12)------|<=I PLAY IT LIKE THIS

E|---------------------------|  

e|---------------------

B|---------------------

G|--2-2-----4-4--------

D|--0-0-----0-0--------

A|---------------------

E|---------------------

e--------------|

B--------------|

G--------------|

D--------------|    do this right after   cool

A--7--6--6--5--|

E--5--4--4--3--|


 G
 Got to be a joker he just do what he please
Intro 4x
D boogie
He wear no shoeshine he got toe-jam football
D boggie
He got monkey finger he shoot coca-cola
A g# !!!!!!!!!!
He say "I know you, you know me"
 G
 One thing I can tell you is you got to be free
Bm G N.C
Come together right now over me
Intro 4x
D boogie
He bag production he got walrus gumboot
D boggie
He got Ono sideboard he one spinal cracker
A g# !!!!!!!!!!!
He got feet down below his knee
 G
 Hold you in his armchair you can feel his disease
Bm G N.C
Come together right now over me
Intro 2x (a little solo)
LIKE BASS OR BASS # # # # #
e|---------------------|-1\3-1\3-----1\3-1\3-1\3-----------1\3-|
B|---------------------|---------6-4-------------6-4-1\3-1-----|
G|---------------------|----------------------------------3----|
D|-6--7--7...-7--------|---------------------------------------|
A|-9-10-10...10-8-10---|---------------------------------------|
E|------------9-7--9---|---------------------------------------|

4X
... = repete several times last note(you should listen to the song for this.
D boogie
He roller-coaster he got early warning
D boogie
He got muddy water he one mojo filter
A g# !!!!!!!!!!
He say "One and one and one is three"
 G
 Got to be good-looking 'cause he's so hard to see
Bm G N.C
Come together right now over me
Intro 4x (another little solo)
AFTER EACH BAR SING COME TOGETHER
 #####
e|---|----------------|-----------|------------|--------1\3-|
B|---|5\6-5\6-5-1-----|-----------|1-6\4-1-----|------------|
G|4\5|------------3\5-|-------3\5-|--------3\5-|0-5\3-0-----|
D|---|----------------|1-4\3-2----|------------|------------|
A|---|----------------|-----------|------------|------------|
E|---|----------------|-----------|------------|------------|

 ####
e|1\3-----1\3-|3-8\6-3-6\8-|3-8\6-3-6\8-|--3\1-0-1\3-|
B|----5-4-----|------------|------------|4-----------|
G|------------|------------|------------|------------|
D|------------|------------|------------|------------|
A|------------|------------|------------|------------|
E|------------|------------|------------|------------|

 ##
e|------------|-----------|
B|------------|4\6-5-1----|
G|--------3\5-|-------3\5-|  (FADE OUT)
D|1-4\3-2-----|-----------|
A|------------|-----------|
E|------------|-----------|

THAT'S ALL
I'm olso a big:"NIRVANA" "THE DOORS" "DEEP PURPLE"
"LED ZEPPELIN" "OASIS" FAN.IF YOU GOT SOMETHING INTERESTING
ABOUT THESE BANDS PLEASE SEND THEME TO ME.
 ################################
 #  NAME:MARIN OPARI            #

 ################################

G
variations - click chord images
Transpose chords:
Tuning:
Cool service:
View: Size:
A  A  A
Rating:
Layout:
  • Currently 3/5 Stars.
  • 1
  • 2
  • 3
  • 4
  • 5
 
Accuracy:
  • Currently 2.5/5 Stars.
  • 1
  • 2
  • 3
  • 4
  • 5
 
click stars to rate
Chordie recommends:
Learn how to play guitar at JamPlay.com
Songbook:
Login to add this song to your songbook
Support the artist
Preview/buy this song
MSN Music
Why this non-profit ad?

 
login to add comments/video/corrections