Chordie logo


Back In The U. S. S. R  Beatles

|--------|



|----7-7-|


|--------|


|--------|


|--------|

F[A]lew in from Miami Beach B. [D]O. A. C.
D[C]idn't get to bed last ni[D]ght
[A]On the way the paperback was [D]on my knee
M[C]an I had a dreadful fli[D]ght
Chorus:
[D]I'm back in the U.S.S.R.
|---------------------------|
|-------------------7-5-----|
|-7-5-----10-8------7-5-8-5-|
|-7-5-8-5-10-8-11-8-----8-5-|
|-----8-5------11-8---------|
|---------------------------|

You don't
know how
lucky you are boy
Back in the U.S.S.[A]R.[D] [Eb] [E]
Verse:
B[A]een away so long I hardly k[D]new the place
G[C]ee it's good to be back ho[D]me
Le[A]ave it till tomorrow to unp[D]ack my case
Ho[C]ney disconnect the ph[D]one
Chorus:
[D]I'm back in the U.S.S.R.
|---------------------------|
|-------------------7-5-----|
|-7-5-----10-8------7-5-8-5-|
|-7-5-8-5-10-8-11-8-----8-5-|
|-----8-5------11-8---------|
|---------------------------|

You don't
know how
lucky you are boy
Back in the U.S.[A]
Back in the U.S.
Back in the U.S.S.[A]R.
Bridge:
Well the [D]Ukraine [D]girls really [D]knock me out[D]
They le[A]ave the [A]West behind[A]
And Mos[D]cow [D/C#]girls make me [D/C]sing and s[D/B]hout
That Ge[E]ogia's always on my mi mi [D]mi mi mi mi mi[A]nd (Oh come on!)
Solo:
|---------------------------------------|
|15----15----15----15----15-------------|
|17b19-17b19-17b19-17b19-17b19-19-19-19-|
|---------------------------------------|
|---------------------------------------|
|---------------------------------------|
|----------------------------------------------------|
|----15b17-------------------------------------------|
|-17-------17-14-14~-17b19-17b19-17b19-17b19-19b-19b-|
|----------------------------------------------------|
|----------------------------------------------------|
|----------------------------------------------------|
|----------------------------|
|----15b17-------------------|
|-17------17-14-14-17p16p15\-|
|----------------------------|
|----------------------------|
|----------------------------|

Chorus:
[D]I'm back in the U.S.S.R.
|---------------------------|
|-------------------7-5-----|
|-7-5-----10-8------7-5-8-5-|
|-7-5-8-5-10-8-11-8-----8-5-|
|-----8-5------11-8---------|
|---------------------------|

You don't
know how
lucky you are boy
Back in the U.S.S.[A]R.
Bridge:
Well the Ukr[D]aine girls really knock me out
They le[A]ave the West behind
And Mos[D]cow [D/C#]girls make me [D/C]sing and s[D/B]hout
That Ge[E]ogia's always on my mi mi [D]mi mi mi mi mi[A]nd
Verse:
high e
|-171717171717171717171717171717171717171717171717171717171717-|
Oh, show me 'round your snow-peaked mountains way down south
|-17171717171717171717171717-|
Take me to your daddy's farm
|-17171717171717171717171717171717171717-|
Let me hear your balalaikais ringing out
|-17171717171717171717171717171717-|
Come and keep your comrade warm
Chorus:
[D]I'm back in the U.S.S.R.
|---------------------------|
|-------------------7-5-----|
|-7-5-----10-8------7-5-8-5-|
|-7-5-8-5-10-8-11-8-----8-5-|
|-----8-5------11-8---------|
|---------------------------|

You don't
know how
lucky you are boy
Back in the U.S.S.[A]R.[D] [Eb] [E]
Ending:
|---------------------------------7-5-----7-5-8-5p0-0-|
|-------------------------7-5-----7-5-8-5-----8-5p0-3-|
|-----------------7-5-----7-5-8-5-----8-5-----------3-|
|---------7-5-----7-5-8-5-----8-5-------------------3-|
|-7-5-3-0-7-5-8-5-----8-5---------------------------0-|
|-7-5-3-0-----8-5-----------------------------------X-|

Questions or comments e-mail me at sakuad@hotmail.com

Important: The song above is NOT stored on the Chordie server. The original song is hosted at www.guitaretab.com. Chordie works as a search engine and provides on-the-fly formatting. Chordie does not index songs against artists/composers will. To remove this song please click here.

Text color:
Chord color:
Chord grids: 
Font size:    
Page size: 

A C D D/B D/C D/C# E Eb
variations - click chord images

Login - add to songbook

Transpose chords

Tuning

Rating click stars to rate

Layout
Accuracy

SHARE PAGE  




You need to log in to post comments