Twist And Shout

Beatles

 DG
E------------------------------2------------------------------------|
B------------------------------3------------------------------------|
G------------------------------2------------------------------------|
D------------------------0-----------------------0--------0---------|
A------0-----2-----4-----------------------------2--------2---------|
E------------------------------------------------3--------3---------|

 A
E-----------------------------------------------------------------------|

B---2-------------------------------------------------------------------|

G---2-------------------------------------------------------------------|
D---2-------------------------------------------------------------------|

A---0-----0-----0-----0-----0-------------------------------------------|

E-----------------------------------------------------------------------| x2

 A7DGA
 Well shake it up baby, now (shake it up baby)

 A7DGA
 Twist and shout (twist and shout)

 A7DGA
 c'mon, c'mon, c'mon, c'mon baby, now (c'mon, baby)

 A7DGA
 c'mon and work it on out (work it on out)

 A7DGA
 Well, work it on ou--t (work it on out)

 A7DGA
 You know you look so good (look so good)

 A7DGA
 You know you got me goin' now (got me goin')

 A7DGAA7
 Just like you knew you would (like I knew you would-oooo)

 A7DGA
 Well shake it up baby, now (shake it up baby)

 A7DGA
 Twist and shout (twist and shout)

 A7DGA
 c'mon, c'mon, c'mon, c'mon baby, now (c'mon, baby)

 A7DGAA7
 c'mon and work it on out (work it on out-oooo)

 A7DGA
 You know you twisty little girl (twisty little girl)

 A7DGA
 You know you twist so fine (twist so fine)

 A7DGA
 C'mon and twist a little closer, now (twist a little closer)

 A7
And let me know that you're mine (let me know you're mine-oooo)

E--------------------------------------------------------------
B------------------------0-----3-----2-----------0-------------
G---------2--------2-----------4-----2-----2--------2----------
D---------2--------2-----------------------2--------2----------
A--------------------------------------------------------------
E-------------------------------------------------------------- x4

 A
                                                                           
Ahh----ahh----ahh----ahh, Wow!(scream) Baby, now (shake it up baby)

 A7DGA
 Twist and shout (twist and shout)

 A7DGA
 c'mon, c'mon, c'mon, c'mon baby, now (c'mon, baby)

 A7DGAA7
 c'mon and work it on out (work it on out-oooo)

 A7DGA
 You know you twisty little girl (twisty little girl)

 A7DGA
 You know you twist so fine (twist so fine)

 A7DGA
 C'mon and twist a little closer, now (twist a little closer)

 A7
And let me know 're mine  (let me let me know you're mine oooooo)

 A7DGA
 Well shake it, shake it, shake it baby, now (shake it up baby)-3x

 A
 *hold D for the end.*
Ahh----ahh----ahh----ahh				



Corrected by radiogjc. View original
A A7 D G
variations - click chord images
Transpose chords:
Tuning:
Cool service:
View: Size:
A  A  A
Rating:
Layout:
  • Currently 3.1/5 Stars.
  • 1
  • 2
  • 3
  • 4
  • 5
 
Accuracy:
  • Currently 3.2/5 Stars.
  • 1
  • 2
  • 3
  • 4
  • 5
 
click stars to rate
Chordie recommends:
Check out JamPlay.com for online video guitar lessons
Songbook:
Login to add this song to your songbook
Support the artist
Preview/buy this song
MSN Music
Why this non-profit ad?

 
login to add comments/video/corrections