""; ?> Strawberry Fields Forever Acoustic by Beatles - guitar chords, guitar tabs and lyrics - chordie

Strawberry Fields Forever Acoustic

Beatles

 F-133211
 C*   x32013
 Gm7-353333
 A7   x02020

Intro

E|------------------------------------------------|
A|------------------------------------------------|
D|--5----5----4------4-----3----3-----2-----------|
G|--4----4----4------4-----4----4-----2-----------|
B|--3----3----3------3-----3----3-----1-----------|
E|------------------------------------------------|
E|----------------------------------------------------------------|
A|-----------------------------------------------------3----------|
D|---2------------0----------------------------3-------2----------|
G|------2--------------0-----------------------2------------------|
B|---------1---------------0--------------------------------------|
e|----------------------------------------------------------------|


 C
 GBmDm
 No-one i think is in my tree
 AmAm/GF
  I mean it must be high or low
 GCAm
That is you can't you know tune in but it's alright
 FGFC
  That is I think it's not too bad     

 GBmDm
 Always, no, sometimes think it's me
 AmAm/GF
  But you I know when it's a dream
 GCAm
I mean I think a no will be a yes but buts its all wrong
 FGFC
  That is i think i disagree   

C*
Let me take you back cos im going to
 GmGm7
  Strawberry fields   
 A7
  Nothing is real
 FA7
And nothing to hung about
 FCAm
 Strawberry fields forever  
 FCAm
 Strawberry fields forever  
 FGFC
 Strawberry fields forever  


A7 Am Bm C Dm F G Gm Gm7
variations - click chord images
Transpose chords:
Tuning:
Cool service:
View: Size:
A  A  A
Rating:
Layout:
  • Currently 3/5 Stars.
  • 1
  • 2
  • 3
  • 4
  • 5
 
Accuracy:
  • Currently 1.8/5 Stars.
  • 1
  • 2
  • 3
  • 4
  • 5
 
click stars to rate
Chordie recommends:
Learn to play songs at Jamplay.com with video guitar lessons
Songbook:
Login to add this song to your songbook
Support the artist
Preview/buy this song
MSN Music
Why this non-profit ad?

 
login to add comments/video/corrections