Chordie logo


Aint She Sweet   Beatles



-------------------------------------------------------------------------------
			     AIN'T SHE SWEET (solo) - The Beatles
-------------------------------------------------------------------------------
Tabbed by: Redbird Lebowski
August 4, 2008

As featured in the 1961 recording by the Beatles featuring Tony Sheridan

solo:

e|-----------------------------------------------------------|
B|-----------------------------------------------------------|
G|-----------------------------------------------------------|
D|--------------------5--7--7b(9)b(7)--5---------------------|
A|-----------7--5--7-----------------------------------------|
E|--0--2--4--------------------------------------------------|

e|-----------------------------------------------------------|
B|-----------------------------------------------------------|
G|-----------------------------------------------------------|
D|-----------5-----7--7b(9)--7b(9)b(7)-----------------------|
A|-----5--7-----7-----------------------7--------------------|
E|--7--------------------------------------------------------|

e|-------------------------------------------------------------|
B|-------------------8-----------------------------------------|
G|-----------5--7/9-----7--5-----------------------------------|
D|-----5--7-------------------7--5--7--7--7/-------------------|
A|--7----------------------------------------------------------|
E|-------------------------------------------------------------|
    B7
e|--0--1--1--1--1--1--1--------------------------------------|
B|--0--0--0--0--0--0--0--------------------------------------|
G|--2--2--2--2--2--2--2--------------------------------------|
D|--1--1--1--1--1--1--1--------------------------------------|
A|--2--2--2--2--2--2--2--------------------------------------|
E|--0--0--0--0--0--0--0--------------------------------------|

| /  slide up
| \  slide down
| h  hammer-on
| p  pull-off
| ~  vibrato
| +  harmonic
| x  Mute note
===============================================================================



Important: The song above is NOT stored on the Chordie server. The original song is hosted at www.guitaretab.com. Chordie works as a search engine and provides on-the-fly formatting. Chordie does not index songs against artists/composers will. To remove this song please click here.

This song is displayed as text-only. Transposing and tuning is only available for chordpro-songs.

Login - add to songbook

Rating click stars to rate

Layout
Accuracy

SHARE PAGE  




You need to log in to post comments