Strawberry Fields

Beatles

 AG6F#7DEEmaj7E7F#mF#/Gbm7Asus
e|---0----0-----2-----2-----0-----0------0-----2-------2-------0-----|
B|---2----0-----2-----3-----0-----0------0-----2-------2-------3-----|
G|---2----0-----3-----2-----1-----1------1-----2-------2-------2-----|
D|---2----0-----2-----0-----2-----1------0-----4-------2-------0-----|
A|---0----2-----4-----0-----2-----2------2-----4-------4-------0-----|
E|---x----3-----2-----x-----0-----0------0-----2-------2-------x-----|


Intro: (figured I would throw in an intro for guitar)

e|-----------------------4~-----5~----4~--2--0~-----|
B|--9-9~--9-9~--9-9~--7~-6~---7-7~--5-5~--3--2~-----|
G|--9-9~--8-8~--7-7~--7~-6~---6-----4-----2--2~-----|
D|--9-9~--9-9~--9-9~--------------------------------|
A|----------------------------------------------0~--|
E|--------------------------------------------------|


 AG6
   Let me take you down 'cause I'm going to Strawberry Fields.
 F#7
   Nothing is real.
 DF#7
  And nothing to hung about.
 DA
  Strawberry Fields forever.

 EEmaj7E7
  Living is easy with eyes closed,
 F#mF#/Gbm7DAsus
   Misunderstanding all you see.     
 DEAF#mE
   It's getting hard to be someone but it all works out.  
 DEDA
   It doesn't matter much to me.        

 AG6
   Let me take you down 'cause I'm going to Strawberry Fields.
 F#7
   Nothing is real.
 DF#7
  And nothing to hung about.
 DA
  Strawberry Fields forever.

 EEmaj7E7
  No one I think is in my tree.
 F#mF#/Gbm7DAsus
   I mean it must be high or low.     
 DEAF#mE
   That is you can't you know tune in but it's alright. 
 DEDA
   That is I think it's not too bad.     

 AG6
   Let me take you down 'cause I'm going to Strawberry Fields.
 F#7
   Nothing is real.
 DF#7
  And nothing to hung about.
 DA
  Strawberry Fields forever.

 EEmaj7E7
  Always know sometimes think it's me.
 F#mF#/Gbm7DAsus
   But you know I know when it's a dream.  
 DEAF#mE
   I think I know I mean oh, yes but it's all wrong. 
 DEDA
   That as I think I disagree.      

 AG6
   Let me take you down 'cause I'm going to Strawberry Fields.
 F#7
   Nothing is real.
 DF#7
  And nothing to hung about.
 DAF#m
  Strawberry Fields forever.     

 DAF#m
  Strawberry Fields forever.     
 DED
  Strawberry Fields forever.

G A~~~~~~~~~~~~~~~~~~~

I buried Paul...


A Asus D E E7 Emaj7 F#7 F#m G6
variations - click chord images
Transpose chords:
Tuning:
Cool service:
View: Size:
A  A  A
Rating:
Layout:
  • Currently 1/5 Stars.
  • 1
  • 2
  • 3
  • 4
  • 5
 
Accuracy:
  • Currently 1/5 Stars.
  • 1
  • 2
  • 3
  • 4
  • 5
 
click stars to rate
Chordie recommends:
Learn to play songs at Jamplay.com with video guitar lessons
Songbook:
Login to add this song to your songbook
Support the artist
Preview/buy this song
MSN Music
Why this non-profit ad?

 
login to add comments/video/corrections