You Never Give Me Your Money

Beatles

 Am7Dm
 You never give me your money
 G7C
 You only give me your funny paper
 Fmaj7E7sus4E7
 and in the middle of negotiations 
 AmAm7
you break down 

I never give you my number
I only give you my situation
and in the middle of investigation
I break down

 CE
 Out of college, money spent
 AmC7
 See no future, pay no rent
 FGC7
 All the money's gone nowhere to go 
 CE
 Any jobber got the sack
 AmC7
 Monday morning turning back
 FGC
 Yellow lorry slow  nowhere to go 

 BbFC
But oh, that magic feeling, nowhere to go 
 BbF
 Oh, that magic feeling 
 C
Nowhere to go

Bb F C (x3)

 DD#GCAD#CF#D#AF#GG#
 A5A6A5B5B6B5
 One sweet    dream       
 C5EA5A5A6A7A6A7
 Pick up the bags and get in the limousine              
 DmG
 Soon we'll be away from here
 D7GA5A6A5
 Step on the gas and wipe that tear away        
 B5CCmaj7A
One sweet dream came true          today  
Came true today
Came true today, yes it did

One two three four five six seven,
All good children go to Heaven

--------------------------------------------------------------------------------------


 Am7Dm7Fmaj7Gm7E7sus4BbD#F#G#
 -0-      -1-      -0-      -3-      -0-      -1-      -x-      -1-      -4-
 -1-      -1-      -1-      -3-      -0-      -3-      -x-      -1-      -4-
 -0-      -2-      -2-      -3-      -2-      -3-      -x-      -1-      -5-
 -2-      -0-      -2-      -3-      -0-      -3-      -x-      -3-      -6-
 -0-      -0-      -0-      -5-      -2-      -1-      -13-     -3-      -6-
 -0-      -0-      -1-      -3-      -0-      -0-      -11-     -1-      -4-
--------------------------------------------------------------------------------------


The "One sweet dream"-part.
I prefer not using chords on that part sience it is rather easy to play the lead guitar there.
It goes like this:

e|------- ------- ------- -------|------- ------- ------- -------|
B|-------------------------------|-------------------------------|
G|-------------------------------|-------------------------------|
D|-------------------------------|-------------------------------|
A|7---7---9-----7---7---7-9---7--|9---9---9-----9-9---9---9H119--|
E|5---5---5-----5---5---5-5---5--|7---7---7-----7-7---7---7---7--|

One sweet dream

e|------- ------- --- -----------|------- ------- ------- -------|
B|-------------------------------|------------------------------\|
G|-------------------------------|------------------------------\|
D|----------------9-9---9-9---9--|------------------------------\|
A|10--10--12--10--7-7---7-7---7--|7---7---9---9-7---7---7-9---7--|
E|-8---8---8---8-----------------|5---5---5---5-5---5---5-5---5--|

Pick bags and get
up the in the limousine

e|1------ ----3-- ------- -------|5------ ----3-- ------- -------|
B|3-----------0------------------|3-----------0------------------|
G|2-----------4------------------|5-----------4------------------|
D|0-----------0------------------|0-----------0------------------|
A|-------------------------------|-------------------------------|
E|-------------------------------|-------------------------------|

Soon we'll from here Step and wipe that tear away
be away on the gas

e|------- ------- ------- -------|------- -------|
B|-------------------------------|---------------|
G|-------------------------------|---------------|
D|-------------------------------|---------------|
A|7---7---9---7-7---7---7-7------|9--------------|
E|5---5---5---5-5---5---5-5------|7--------------|

One sweet dream came true

e|------- ------- ------- -------|------- ----5-- ------- -------|
B|------------------------0------|------------2------------------|
G|--------0-----------0-------0--|--------2----------------------|
D|----2-----------0--------------|----2--------------------------|
A|3-----------2------------------|0------------------------------|
E|-------------------------------|-------------------------------|

today came true today, and it all repeats to the end.

Please msg if anything at all
/Chong

A A5 A6 A7 Am Am7 B5 B6 Bb C C5 C7 Cmaj7 D D# D7 Dm Dm7 E E7 E7sus4 F F# Fmaj7 G G# G7 Gm7
variations - click chord images
Transpose chords:
Tuning:
Cool service:
View: Size:
A  A  A
Rating:
Layout:
  • Currently 2.6/5 Stars.
  • 1
  • 2
  • 3
  • 4
  • 5
 
Accuracy:
  • Currently 4/5 Stars.
  • 1
  • 2
  • 3
  • 4
  • 5
 
click stars to rate
Chordie recommends:
Learn to play this song & others via video guitar lessons at JamPlay.com
Songbook:
Login to add this song to your songbook
Support the artist
Preview/buy this song
MSN Music
Why this non-profit ad?

 
login to add comments/video/corrections